PrimaNota.ru - самый крупный в мире бесплатный архив песенных текстов, аккордов, табулатур и нот


Jason Mraz - Shy That Way - таба, видео

Регистрация Запомнить меня
Войти через:  Facebook Google Twitter Vk Yandex Mail.ru

Jason Mraz - Shy That Way - таба, видео

Печатать
Просмотров: 106
This song is a favorite of mine, it sounds great and is really fun to play, have fun with it!

intro

-<12>-<7>-----<12>--------------<12>-<7>-----<12>----------<7>-----|
-<12>----<7>--------<12>---<7>--<12>-----<7>------<12><12>---<7>---|
---------<7>-----<12>------<7>-----------<7>----<12>---------<7>---|
------------------------<7>----------------------------------------|
-------------------------------------------------------------------|
-------------------------------------------------------------------|

  Em7             D                 C
-----------7\--|----2---------------------------|--0--0--0-------|
-----8-----8\--|--3---3------3---------1p0h3--3-|-\5--5--5--7----|
-----7---7-----|--2--------2---2----0--0------0-|----------------|
--------9------|--0------0-------0--2-----------|----------------|
---------------|--------------------3-----------|----------------|
-\0------------|--------------------------------|----------------|

  Em7             D                 C
-----------7---|------14-----14-----------------|----------------|
--8------8-8---|--15----15-----15---1---1p0h1-3-|-1---1p0-1--0-0-|
--7----7-------|--14------14-----14-0---0-----0-|-0---0---0--0-0-|
--9--9---------|--0-----------------2-2---------|-2--------------|
---------------|--------------------3-----------|-3---3------3---|
---------------|--------------------------------|----------------|

Verse

 Em7             D                 C
-----------7\--|----2---------------------------|--0--0--0-------|
-----8-----8\--|--3---3------3---------1p0h1--3-|-\5--5--5--7----|
-----7---7-----|--2--------2---2----0--0------0-|----------------|
--------9------|--0------0-------0--2-----------|----------------| x 3
---------------|--------------------3-----------|----------------|
--0------------|--------------------------------|----------------|


Em7             D                 C
-----------7\--|----2---------------------------|----------------|
-----8-----8\--|--3---3------3---------1p0h1--3-|--1-----1-------|
-----7---7-----|--2--------2---2----0--0------0-|--0-----0-------|
--------9------|--0------0-------0--2-----------|--2-----2-------|
---------------|--------------------3-----------|--3-----3-------|
--0------------|--------------------------------|----------------|


Chorus

--------------|------------|--------------7------7---------|
--------------|------------|------8---7-----7------7-------|
-3--3--3--2---|------------|----7-----7-------7------7-----|
-2--2--2--1---|------------|--9-------7--------------------|
-3--3-----2---|--2---------|-------------------------------|
--------------|-----3--0---|-------------------------------|

--------------|------------|------------<12>---------------|
--------------|------------|------8-----<12>---------------|
-3--3--3--2---|------------|----7-------<12>---------------|
-2--2--2--1---|------------|--9---------<12>---------------|
-3--3-----2---|--2---------|-------------------------------|
--------------|-----3--0---|-------------------------------|


Verse 2 (play same as verse 1)



Chorus 2

--------------|------------|--------------7------7---------|
--------------|------------|------8---7-----7------7-------|
-3--3--3--2---|------------|----7-----7-------7------7-----|
-2--2--2--1---|------------|--9-------7--------------------|
-3--3-----2---|--2---------|-------------------------------|
--------------|-----3--0---|-------------------------------|

--------------|------------|--------------7------7---------|
--------------|------------|------8---7-----7------7-------|
-3--3--3--2---|------------|----7-----7-------7------7-----|
-2--2--2--1---|------------|--9-------7--------------------|
-3--3-----2---|--2---------|-------------------------------|
--------------|-----3--0---|-------------------------------|

--------------|------------|------------<12>---------------|
--------------|------------|------8-----<12>---------------|
-3--3--3--2---|------------|----7-------<12>---------------|
-2--2--2--1---|------------|--9---------<12>---------------|
-3--3-----2---|--2---------|-------------------------------|
--------------|-----3--0---|-------------------------------|


Solo

--------------------------|------------------------------------|
--------------------------|---------------------3-5-/8---------|
--7/9-7-------------------|-------------------4----------------|
--------9-7--5-7---5-7-4--|--4h5p4-----5----5------------------|
-----------------7--------|--------5-7----7--------------------|
--------------------------|------------------------------------|

--------------------------|---------------------------------12-|
--------------------------|-------------------------------12---|
--7/9-7-------------------|-------------------4-7-9--12-12-----|
--------9-7--5-7---5-7-4--|--4h5p4-----5----5------------------|
-----------------7--------|--------5-7----7--------------------|
--------------------------|------------------------------------|



Bridge

  C            D             Em7           D
-----------------------------------------------------------------|
--1------------1-------------8-------------7---------------------|
--0------------0-------------0-------------0---------------------|
--2------------4-------------9-------------7---------------------|
--3------------5-------------7-------------5---------------------|
-----------------------------------------------------------------|

  C            D             Em7
------------------------------------------<12>-------------------|
--1------------1-------------8------------<12>-------------------|
--0------------0-------------0------------<12>-------------------|
--2------------4-------------9-----------------------------------|
--3------------5-------------7-----------------------------------|
-----------------------------------------------------------------|



Chorus 3

--------------|------------|--------------7------7---------|
--------------|------------|------8---7-----7------7-------|
-3--3--3--2---|------------|----7-----7-------7------7-----|
-2--2--2--1---|------------|--9-------7--------------------|
-3--3-----2---|--2---------|-------------------------------|
--------------|-----3--0---|-------------------------------|

--------------|------------|--------------7------7---------|
--------------|------------|------8---7-----7------7-------|
-3--3--3--2---|------------|----7-----7-------7------7-----|
-2--2--2--1---|------------|--9-------7--------------------|
-3--3-----2---|--2---------|-------------------------------|
--------------|-----3--0---|-------------------------------|

--------------|------------|--------------7------7---------|
--------------|------------|------8---7-----7------7-------|
-3--3--3--2---|------------|----7-----7-------7------7-----|
-2--2--2--1---|------------|--9-------7--------------------|
-3--3-----2---|--2---------|-------------------------------|
--------------|-----3--0---|-------------------------------|

--------------|------------|-----<12>---------------|
--------------|------------|-----<12>---------------|
-3--3--3--2---|------------|-----<12>---------------|
-2--2--2--1---|------------|------------------------|
-3--3-----2---|--2---------|------------------------|
--------------|-----3--0---|------------------------|
                slow down
Добавлено: 10.06.2013
Другие материалы по этой песне:
  • Аккорды и текст

Страница создана 10.06.2013
http://primanota.ru/jason-mraz/shy-that-way-chords.htm
Привет, Гость.
Предлагаем пройти революционный курс по гитаре.
Подарок от PrimaNota.Ru, забирай!