PrimaNota.ru - самый крупный в мире бесплатный архив песенных текстов, аккордов, табулатур и нот


Jason Mraz - Sail Away - аккорды и текст, видео

Регистрация Запомнить меня
Войти через:  Facebook Google Twitter Vk Yandex Mail.ru

Jason Mraz - Sail Away - аккорды и текст, видео

Печатать
Просмотров: 169
Sail Away
Jason Mraz
Ok, so this is my second tab and I hope you like it. The song is brand-new, so I had to 
listen to it over and over and over again to write down the chords and text. So...enjoy 
and sail away! ;)
Jason uses the capo on the 4th fret and I think you shouldn't change it, cause it sounds 
pretty good like that. :)



:::CHORDS::: (which we will use)


   Gm7   Cmin9  Gm7/Bb Gm7/Ab F#7M    F7    Eb7M   Bb7M    Ebm    G7     Cm7

e---x------x------x------x------x------0------x------x------x------3------3-|
H--(3)-----3------3------3------2------0------8------6------7------3------4-|
G---3------3------3------3------3------2------7------7------8------4------3-|
D---3------1------3------3------3------1------8------7------8------3------5-|
A---x------3------x------x------x------3------6------x------6------5------3-|
E---3------x------6------4------2------1------x------6------x------3------x-|



The intro sounds like this:


e---------------------------------------------------------------------------|
H------3-3-3-3----3-3-3-3----3-3--0-----3-----3------3-3-3-3----3-3-3-3-----|
G------3-3-3-3----3-3-3-3----3-3--0-----3-----3------3-3-3-3----3-3-3-3-----|
D------3-3-3-3----3-3-3-3----3-3--0-----3-----3------1-1-1-1----1-1-1-1-----|
A------------------------------------6-----5------3----------3--------------|
E---3----------3----------3-------------------------------------------------|

Play this twice and than, after repeating this intro, start with the chords like this:



:::LYRICS:::



Verse 1:

Gm7
Yeah livin' on the bottom of the sea,
There's plenty of room for you and me.

Cmin9
For you I am I am so deep,
At the bottom of the sea is where I be.  Gm7

Gm7
And from the bottom of the ocean,
Up to the water shed.

Cmin9
To float your boat is what I'm hoping,
And we could share my water bed.         Gm7


Bridge:

Gm7/Bb
And all of the whales (whales)
Gm7/Ab                    Gm7 F#7M  
Dedicate their songs to you   aahaa


this part is often skipped (i don't know why :P)

(((Gm7/A#                                     )))
(((it hardly compares (-pares)                )))
(((Gm7/Ab                    Gm7  F#7M        )))
(((to the ones I wrote for you   aahaahaahaa  )))



Chorus:

 Gm7/Bb  |  Gm7/Ab  |  Gm7  |  F#7M  
Yes I would sail (sail)
Away (away)
With you (with you)  aahaahaahaahaaaa    (2x)


Verse 2:

Gm7
At the bottom where we'll live,
The perfect place to raise our kids.

Cmin9
They'll go to school with all the fishes,
They won't have to wash no dishes.        Gm7



Bridge:

Gm7
Underwater you will... like it... like it...
Cmin9
The current don't... fight it... fight it...
F7
Open your eyes... and see that I would...



Chorus:

 Gm7/Bb  |  Gm7/Ab  |  Gm7  |  F#7M  
Yes I would sail (sail)
Away (away)
With you (with you)  aahaahaahaahaaaa    (2x)

F7
AyayayayayayaaaI'm...


Bridge 2:
                        Eb7M       Bb7M  
Wishing on a starfish in the sky
                               F7
I wish I may wish I might
                              Gm7
Every day every night
             Eb7M     Ebm
Under the ocean blue...
 Bb7M     G7
I'd say "I do"...
Cm7     F7               Gm7/Bb
I'd sail away with you




(((!!!AND THE WHALE SONG!!!)))  ;P

Gm7 | Cmin9 | Gm7




                                   Gm7
Underwater you will... like it... like it...
                     Cmin9
Go on and... dive in... dive in...
                  F7
Open your eyes and see that I would...



Chorus:

 Gm7/Bb  |  Gm7/Ab  |  Gm7  |  F#7M  
........ sail (sail)
Away (away)
With you (with you)  aahaahaahaahaaaa    (2x)



Outro (use same chords like in the chorus):

There's nothing the whales (whales)
can say (say)
or do (or do) aaaah
yes I would sail (sail)
away (away)
with you (with you) aaaaaah
  F7 hold                        Gm7/Bb
AyayayayayayaaaI love... Yoooouuuuuuuuuu...... :)





So, that's it. Again, have fun. See ya! ;)
Добавлено: 31.03.2012
Другие материалы по этой песне:

Страница создана 31.03.2012
http://primanota.ru/jason-mraz/sail-away-chords.htm
Привет, Гость.
Предлагаем пройти революционный курс по гитаре.
Подарок от PrimaNota.Ru, забирай!