PrimaNota.ru - самый крупный в мире бесплатный архив песенных текстов, аккордов, табулатур и нот


Jason Mraz - Lucky Live - таба, видео

Регистрация Запомнить меня
Войти через:  Facebook Google Twitter Vk Yandex Mail.ru

Jason Mraz - Lucky Live - таба, видео

Печатать
Просмотров: 135
By Stephenjusto24
My 2nd tab
This is how I've seen him play it live:

Verse
e|--------------------------------------------------|
B|------------------3-x-3-x-1-x-1-x-6-x-6-x-6-x-6---|
G|--0-x-0-x-0-x-0-x-2-x-2-x-2-x-2-x-5-x-5-x-5-x-5---|
D|--2-x-2-x-2-x-2-x-2-x-2-x-2-x-2-x-7-x-7-x-7-x-7---|
A|--3-x-3-x-3-x-3-x-----------------5-x-5-x-5-x-5---|
E|--------------------------------------------------|

e|--------------------------------------------------|
B|-5-x-5-x-3-x-3-x-5-x-5-x-5-x-5-x-5-x-5-x-5-x-5----|
G|-4-x-4-x-4-x-4-x-6-x-6-x-6-x-6-x-5-x-5-x-5-x-5----|
D|-3-x-3-x-5-x-5-x-7-x-7-x-7-x-7-x-5-x-5-x-5-x-5----|
A|-----------------7-x-7-x-7-x-7-x------------------|
E|-3-x-3-x-3-x-3-x-----------------5-x-5-x-5-x-5----|

e|-----------------|
B|-6-x-6-x-6-x-6---|
G|-5-x-5-x-5-x-5---|
D|-7-x-7-x-7-x-7---|
A|-5-x-5-x-5-x-5---|
E|-----------------|

e|-----------------|
B|-5-x-5-x-3-x-3-x-|
G|-4-x-4-x-4-x-4-x-|
D|-3-x-3-x-5-x-5-x-|
A|-----------------|
E|-3-x-3-x-3-x-3-x-|

e|--------------------------------------------------|
B|------------------3-x-3-x-1-x-1-x-6-x-6-x-6-x-6---|
G|--0-x-0-x-0-x-0-x-2-x-2-x-2-x-2-x-5-x-5-x-5-x-5---|
D|--2-x-2-x-2-x-2-x-2-x-2-x-2-x-2-x-7-x-7-x-7-x-7---|
A|--3-x-3-x-3-x-3-x-----------------5-x-5-x-5-x-5---|
E|--------------------------------------------------|

e|--------------------------------------------------|
B|-5-x-5-x-3-x-3-x-5-x-5-x-5-x-5-x-5-x-5-x-5-x-5----|
G|-4-x-4-x-4-x-4-x-6-x-6-x-6-x-6-x-5-x-5-x-5-x-5----|
D|-3-x-3-x-5-x-5-x-7-x-7-x-7-x-7-x-5-x-5-x-5-x-5----|
A|-----------------7-x-7-x-7-x-7-x------------------|
E|-3-x-3-x-3-x-3-x-----------------5-x-5-x-5-x-5----|


e|---5-----------|
B|-6--6----------|
G|-5---5----4--5-|
D|-7----7---5--6-|
A|-5--------5--6-|
E|---------3--4--|

Chorus:

Now you strum instead of plucking the strings...

e|----------------------------------------------------|
B|-5-x-5-x-5-x-5-x-6-x-6-x-6-x-6-x-5-x-5-x-3-x-3-x----|
G|-5-x-5-x-5-x-5-x-5-x-5-x-5-x-5-x-4-x-4-x-4-x-4-x----|
D|-5-x-5-x-5-x-5-x-7-x-7-x-7-x-7-x-3-x-3-x-5-x-5-x----|
A|-x-x-x-x-x-x-x-x-5-x-5-x-5-x-5-x-x-x-x-x-5-x-5-x----|
E|-5-x-5-x-5-x-5-------------------3-x-3-x-3-x-3-x----|

e|----------|
B|-111-111--|
G|-000-000--|
D|-222-000--|
A|-333-222--|
E|-000-000--|

e|----------------------------------------------------|
B|-5-x-5-x-5-x-5-x-6-x-6-x-6-x-6-x-5-x-5-x-3-x-3-x----|
G|-5-x-5-x-5-x-5-x-5-x-5-x-5-x-5-x-4-x-4-x-4-x-4-x----|
D|-5-x-5-x-5-x-5-x-7-x-7-x-7-x-7-x-3-x-3-x-5-x-5-x----|
A|-x-x-x-x-x-x-x-x-5-x-5-x-5-x-5-x-x-x-x-x-5-x-5-x----|
E|-5-x-5-x-5-x-5-------------------3-x-3-x-3-x-3-x----|

e|----------------|
B|-5-x-5-x-3-x-3--|
G|-4-x-4-x-4-x-4--|
D|-3-x-3-x-5-x-5--|
A|-x-x-x-x-5-x-5--|
E|-3-x-3-x-3-x-3--|

Then you just strum this open chords C - Am - Em - G to the
bridge:

If this part is too hard for you for some reason,
e|-----------------|
B|-6-x-5-x-6-x-5-x-|
G|-5-x-5-x-5-x-5-x-|
D|-3-x-3-x-3-x-3-x-|
A|-5-x-5-x-5-x-5-x-|
E|-----------------|
 you can do it this way...
e|-----------------|
B|-6-x-6-x-6-x-6-x-|
G|-5-x-5-x-5-x-5-x-|
D|-7-x-7-x-7-x-7-x-|
A|-5-x-5-x-5-x-5-x-|
E|-----------------|

e|----------------------------------------------------|
B|-5-x-5-x-5-x-5-x-3-x-3-x-3-x-3-x-6-x-5-x-6-x-5------|
G|-5-x-5-x-5-x-5-x-4-x-4-x-4-x-4-x-5-x-5-x-5-x-5------|
D|-5-x-5-x-5-x-5-x-5-x-5-x-5-x-5-x-3-x-3-x-3-x-3------|
A|---------------------------------5-x-5-x-5-x-5------|
E|-5-x-5-x-5-x-5-x-3-x-3-x-3-x-3-x--------------------|

e|-----------------|
B|-6-x-5-x-6-x-5-x-|
G|-5-x-5-x-5-x-5-x-|
D|-3-x-3-x-3-x-3-x-|
A|-5-x-5-x-5-x-5-x-|
E|-----------------|

e|----------------------------------------------------|
B|-5-x-5-x-5-x-5-x-3-x-3-x-3-x-3-x-6-x-5-x-6-x-5------|
G|-5-x-5-x-5-x-5-x-4-x-4-x-4-x-4-x-5-x-5-x-5-x-5------|
D|-5-x-5-x-5-x-5-x-5-x-5-x-5-x-5-x-3-x-3-x-3-x-3------|
A|---------------------------------5-x-5-x-5-x-5------|
E|-5-x-5-x-5-x-5-x-3-x-3-x-3-x-3-x--------------------|

e|-----------------------------------|
B|-6-x--5-----3----------------------|
G|-5-x--5-----4----------------------|
D|-3-x--5-----5----------------------|
A|-5-x--x-----5----------------------|
E|------5-----3---3---4--------------|

To the chorus:

e|----------------------------------------------------|
B|-5-x-5-x-5-x-5-x-6-x-6-x-6-x-6-x-5-x-5-x-3-x-3-x----|
G|-5-x-5-x-5-x-5-x-5-x-5-x-5-x-5-x-4-x-4-x-4-x-4-x----|
D|-5-x-5-x-5-x-5-x-7-x-7-x-7-x-7-x-3-x-3-x-5-x-5-x----|
A|-x-x-x-x-x-x-x-x-5-x-5-x-5-x-5-x-x-x-x-x-5-x-5-x----|
E|-5-x-5-x-5-x-5-------------------3-x-3-x-3-x-3-x----|

e|----------|
B|-111-111--|
G|-000-000--|
D|-222-000--|
A|-333-222--|
E|-000-000--|

e|----------------------------------------------------|
B|-5-x-5-x-5-x-5-x-6-x-6-x-6-x-6-x-5-x-5-x-3-x-3-x----|
G|-5-x-5-x-5-x-5-x-5-x-5-x-5-x-5-x-4-x-4-x-4-x-4-x----|
D|-5-x-5-x-5-x-5-x-7-x-7-x-7-x-7-x-3-x-3-x-5-x-5-x----|
A|-x-x-x-x-x-x-x-x-5-x-5-x-5-x-5-x-x-x-x-x-5-x-5-x----|
E|-5-x-5-x-5-x-5-------------------3-x-3-x-3-x-3-x----|

e|--------------------------------------------------|
B|-5-x-5-x-3-4--------------------------------------|
G|-4-x-4-x-4-5--------------------------------------|
D|-3-x-3-x-5-6--------------------------------------|
A|-x-x-x-x-5-6--------------------------------------|
E|-3-x-3-x-3-4--------------------------------------|

e|----------------------------------------------------|
B|-5-x-5-x-5-x-5-x-6-x-6-x-6-x-6-x-5-x-5-x-3-x-3-x----|
G|-5-x-5-x-5-x-5-x-5-x-5-x-5-x-5-x-4-x-4-x-4-x-4-x----|
D|-5-x-5-x-5-x-5-x-7-x-7-x-7-x-7-x-3-x-3-x-5-x-5-x----|
A|-x-x-x-x-x-x-x-x-5-x-5-x-5-x-5-x-x-x-x-x-5-x-5-x----|
E|-5-x-5-x-5-x-5-------------------3-x-3-x-3-x-3-x----|

e|----------|
B|-111-111--|
G|-000-000--|
D|-222-000--|
A|-333-222--|
E|-000-000--|

e|----------------------------------------------------|
B|-5-x-5-x-5-x-5-x-6-x-6-x-6-x-6-x-5-x-5-x-3-x-3-x----|
G|-5-x-5-x-5-x-5-x-5-x-5-x-5-x-5-x-4-x-4-x-4-x-4-x----|
D|-5-x-5-x-5-x-5-x-7-x-7-x-7-x-7-x-3-x-3-x-5-x-5-x----|
A|-x-x-x-x-x-x-x-x-5-x-5-x-5-x-5-x-x-x-x-x-5-x-5-x----|
E|-5-x-5-x-5-x-5-------------------3-x-3-x-3-x-3-x----|

e|----------------|
B|-5-x-5-x-3-x-3--|
G|-4-x-4-x-4-x-4--|
D|-3-x-3-x-5-x-5--|
A|-x-x-x-x-5-x-5--|
E|-3-x-3-x-3-x-3--|

Then you just repeat the verse, and go back to chorus.

I recommend watching this video http://www.youtube.com/watch?v=E0ayXRFGWxw Fast forward 
to 2:43 to see how Jason Mraz plays it. \

If you like this please rate and comment...
Добавлено: 27.10.2013
Другие материалы по этой песне:
  • Аккорды и текст

Страница создана 27.10.2013
http://primanota.ru/jason-mraz/lucky-live-chords.htm
Привет, Гость.
Предлагаем пройти революционный курс по гитаре.
Подарок от PrimaNota.Ru, забирай!