PrimaNota.ru - самый крупный в мире бесплатный архив песенных текстов, аккордов, табулатур и нот


Jason Mraz - Curbsite Prophet - аккорды и текст, таба, видео

Регистрация Запомнить меня
Войти через:  Facebook Google Twitter Vk Yandex Mail.ru

Jason Mraz - Curbsite Prophet - аккорды и текст, таба, видео

Печатать
Просмотров: 114
Curbsite Prophet
Jason Mraz
Curbside Prophet
 
Subukan nyo to. Maganda na song ito.


Standard Tuning
No Capo

intro:
e-----------3-------------------|
B-----------3-------------------|
G-----4-------------2-------------|
D-----5-------------3-------------|
A-------0-3-----------0-1------1--|
E-3-3-----------1-1-------0h1h3-3-|

everything else:
e--------------------------------------|
B--------------------------------------|
G--------------5-5---------------3-3---|
D-----5-5------5-5------3-3------3-3---|
A-----5-5--3-3----------3-3--1-1-------|
E-3-3---------------1-1----------------|

Just in case you have a banjo lying around
d-------------------|
B-8-6---------------|
G-----5-5h7p5-------|
D-------------8p5---|
g-------------------|


Version 2

Whole Song:
e-----------------------------------------------|
B--------------8-------1-----------------------|
G-----4--------7-------2---------0-------0-----|
D-----5--------7-------2-------0-------0-------|
A-----------------------------5-------3---------|
E--3-3--x--8-8---x--1-1--x--6-------5-----------|
Добавлено: 26.04.2014
Другие материалы по этой песне:
  • Аккорды и текст

Страница создана 16.11.2013
http://primanota.ru/jason-mraz/curbsite-prophet-chords.htm
Привет, Гость.
Предлагаем пройти революционный курс по гитаре.
Подарок от PrimaNota.Ru, забирай!