PrimaNota.ru - самый крупный в мире бесплатный архив песенных текстов, аккордов, табулатур и нот


Jason Michael Carroll - Looking At You - аккорды и текст, видео

Регистрация Запомнить меня
Войти через:  Facebook Google Twitter Vk Yandex Mail.ru

Jason Michael Carroll - Looking At You - аккорды и текст, видео

Печатать
Просмотров: 113
Looking At You
Jason Michael Carroll
INTRO:
*
e|-----5-----5-----5-----5-5-3-2---2-3/5-3\2-3-2---------5-----5-----5-----5-|
B|-2-3---2-3---2-3---2-3---------5---------------3---2-3---2-3---2-3---2-3---|
G|---------------------------------------------------------------------------|
D|---------------------------------------------------------------------------|
A|---------------------------------------------------------------------------|
E|---------------------------------------------------------------------------|

e|-5-3-2-3-2-----------------------------------------------------------------|
B|-----------5-3-3-----------------------------------------------------------|
G|---------------------------------------------------------------------------|
D|---------------------------------------------------------------------------|
A|---------------------------------------------------------------------------|
E|---------------------------------------------------------------------------|


     Bm    G         A        D
I was 16, drivin' my old mans car
   Bm          G                 A
the light was red but I ran right through
    Bm        G                A            D 
and I killed a mailbox and some flowers in a yard
      G      A         D
'cause I was lookin' at you


     Bm          G                   A             D           
I was sittin' in the stands it was the bottom of the ninth
   Bm        G        A
the score was tied 2 to 2
     Bm          G            A           D  
when a foul ball hit me right between the eyes
      G      A         D
'cause I was lookin' at you


CHORUS

         G            A             D 
Well some people like starin' at the sunset
    G            A        D 
and some prefer a tropical view
   Bm        F#7           G             D 
and some like gazin' at the stars and the moon
    G      A         D
but I like lookin' at you (woo hoo)

*
e|-----5-----5-----5-----5-5-3-2---2-----------------------------------------|
B|-2-3---2-3---2-3---2-3---------5---3-3/5-----------------------------------|
G|---------------------------------------------------------------------------|
D|---------------------------------------------------------------------------|
A|---------------------------------------------------------------------------|
E|---------------------------------------------------------------------------|


          Bm            G                A          D
Yeah, some things in this world might have passed me by
     Bm           G              A
and I might have missed a chance or two
      Bm          G          A     D
but you won't find any regret in my eyes
       G         A        D
'cause I'm still lookin at you


CHORUS


Em               D 
Baby, in my heart I know
       G                    A
there's nothin' as beautiful as you


CHORUS x2

*
e|-----5-----5-----5-----5-3-2-3-2-------------------------------------------|
B|-2-3---2-3---2-3---2-3-----------5-3-3-------------------------------------|
G|---------------------------------------------------------------------------|
D|---------------------------------------------------------------------------|
A|---------------------------------------------------------------------------|
E|---------------------------------------------------------------------------|


*These are little bit different than in original version, but i like it. :)

Hope you like it, enjoy!
Добавлено: 26.03.2012
Другие материалы по этой песне:
  • Аккорды и текст

Страница создана 26.03.2012
http://primanota.ru/jason-michael-carroll/looking-at-you-chords.htm
Привет, Гость.
Предлагаем пройти революционный курс по гитаре.
Подарок от PrimaNota.Ru, забирай!