PrimaNota.ru - самый крупный в мире бесплатный архив песенных текстов, аккордов, табулатур и нот


Jason Lo - Operator The Line Is Dead - таба, видео

Регистрация Запомнить меня
Войти через:  Facebook Google Twitter Vk Yandex Mail.ru

Jason Lo - Operator The Line Is Dead - таба, видео

Печатать
Просмотров: 167
Intro:
e|----6---------------------------6------------------------------------------|
B|--------6----------------------------6-------------------------------------|
G|------------8---7--------------------------8---7---------------------------|
D|---------------------------------------------------------------------------|
A|---------------------------------------------------------------------------|
E|---------------------------------------------------------------------------|



Verse:
Lead Guitar-continued the intro..
Capo       -


e|---------------------------------------------------------------------------|
B|---------------------------------------------------------------------------|
G|-----4-4-4-4-4-4-4-4-4-4-4-4-----------------------------------------------|
D|-----4-4-4-4-4-4-4-4-4-4-4-4------4-4-4-4-4-4-4-4-4-4-4-4------------------|
A|-----2-2-2-2-2-2-2-2-2-2-2-2------4-4-4-4-4-4-4-4-4-4-4-4------------------|
E|----------------------------------2-2-2-2-2-2-2-2-2-2-2-2------------------|



e|---------------------------------------------------------------------------|
B|---------------------------------------------------------------------------|
G|---------------------------------------------------------------------------|
D|--------6-6-6-6-6-6-6-6-6-6---------------2-2-2-2-2-2-2-2-2----------------|
A|--------6-6-6-6-6-6-6-6-6-6---------------2-2-2-2-2-2-2-2-2----------------|
E|--------4-4-4-4-4-4-4-4-4-4---------------x-x-x-x-x-x-x-x-x----------------|

Chorus:

Lead&capo-play 2gether:
This is the coolest part..




e|---------------------------------------------------------------------------|
B|---------------------------------------------------------------------------|
G|-----2-2-2-2-2-2-2-2-2-2-2-2-----------------------------------------------|
D|-----4-4-4-4-4-4-4-4-4-4-4-4------4-4-4-4-4-4-4-4-4-4-4-4------------------|
A|-----4-4-4-4-4-4-4-4-4-4-4-4------4-4-4-4-4-4-4-4-4-4-4-4------------------|
E|----------------------------------2-2-2-2-2-2-2-2-2-2-2-2------------------|



e|---------------------------------------------------------------------------|
B|---------------------------------------------------------------------------|
G|---------------------------------------------------------------------------|
D|--------6-6-6-6-6-6-6-6-6-6---------------2-2-2-2-2-2-2-2-2----------------|
A|--------6-6-6-6-6-6-6-6-6-6---------------2-2-2-2-2-2-2-2-2----------------|
E|--------4-4-4-4-4-4-4-4-4-4---------------x-x-x-x-x-x-x-x-x----------------|



Verse:repeat
Chorus:repeat



Made by:Sakuragi Hanamichi..
email  : tensai_boo@yahoo.com
Добавлено: 18.04.2012
Другие материалы по этой песне:

Страница создана 10.03.2012
http://primanota.ru/jason-lo/operator-the-line-is-dead-chords.htm
Привет, Гость.
Предлагаем пройти революционный курс по гитаре.
Подарок от PrimaNota.Ru, забирай!