PrimaNota.ru - самый крупный в мире бесплатный архив песенных текстов, аккордов, табулатур и нот


Jason Hayes - A Call To Arms - таба, видео

Регистрация Запомнить меня
Войти через:  Facebook Google Twitter Vk Yandex Mail.ru

Jason Hayes - A Call To Arms - таба, видео

Печатать
Просмотров: 133
-------------------------------------------------------------------------------
   A Call to Arms - Jason Hayes, Tracy W. Bush, Derek Duke and Glenn Stafford
-------------------------------------------------------------------------------
Tabbed by: DymasDeBird
E-mail: thomaswowundercover@gmail.com
The tabs are made by me, and I am a beginner to such things, therefore there are bound to be mistakes.
If you find mistakes, please correct it or notify me so I can try to do something about it. 
(I've checked the allow others to contribute box)
Tuning: Normal

Intro                                                                 (A)
e|---------------------------------------------------------------------0-----|
B|--------------5-4---2-0------------------------------------5-4-2-0---2-----|
G|-6-----6----6------------1--------1-----------6-----6----6-----------2-----|
D|-----6----6----------------4--2-4----1------------6---6--------------2-----|
A|---------------------------------------4-----------------------------0-----|
E|---------------------------------------------------------------------------|

Rest of intro (incomplete)
e|---------4--2-------1----1-----7-5-2-4-------------------------------------|
B|---2----------2--4----2----2-4---------------------------------------------|
G|-2---1-2-------------------------------------------------------------------|
D|---------------------------------------------------------------------------|
A|---------------------------------------------------------------------------|
E|---------------------------------------------------------------------------|

"Verse"? (incomplete)
e|---------------------------------------------------------------------------|
B|---------------------------------------------------------------------------|
G|------------6-4------6-4---------------------------------------------------|
D|---------6-----7-6------7-6--4---------------------------------------------|
A|-4--6--7-----------------------7-6-----------------------------------------|
E|---------------------------------------------------------------------------|
   Gloria! Honorfice! Prealium Facio!






I do not know the rest of the intro - please help me with filling this in.
You can listen to the song here: https://www.youtube.com/watch?v=dttGdK0l1G0 (the part I play from starts at
about 25 seconds in.

Full Lyrics

Gloria!
Honorfice!
Praelium Facio!

Animus!
Gradior Quo!
Prodo

In Excelsis
Precedo
Bellator
Decerte
Adversa
incurro
Invadoria!!

Desideratus Fatum!
Desideratus Bellum!




************************************

| /   slide up
| \   slide down
| h   hammer-on
| p   pull-off
| ~   vibrato
| +   harmonic
| x   Mute note
| b   Bend
| pb  Pre-bend
| br  Bend release
| pbr Pre-bend release
| brb Bend release bend

************************************
Добавлено: 03.12.2015
Другие материалы по этой песне:
  • Аккорды и текст

Страница создана 03.12.2015
http://primanota.ru/jason-hayes/call-to-arms-chords.htm
Привет, Гость.
Предлагаем пройти революционный курс по гитаре.
Подарок от PrimaNota.Ru, забирай!