PrimaNota.ru - самый крупный в мире бесплатный архив песенных текстов, аккордов, табулатур и нот


Jason Collett - Ill Bring The Sun - таба, видео

Регистрация Запомнить меня
Войти через:  Facebook Google Twitter Vk Yandex Mail.ru

Jason Collett - Ill Bring The Sun - таба, видео

Печатать
Просмотров: 139
Title: 'I'll Bring the Sun'
Artist: Jason Collett
Album: Idols of Exile
Tabbed by Jorge Díaz (j_diaz_s@yahoo.com)


          E A D G B E

A       --5-7-7-6-5-5--| or --x-0-2-2-2-0--|
Dsus2   --x-5-7-7-5-5--| or --x-x-0-2-3-0--|



 Intro: (x2)

   A             Dsus2
E ----------------------------------|
B ----------------------------------|
G -4-4-4-4s6-6-6s7-7-7-7s9-9-9-9-9--|
D ----------------------------------|
A ----------------------------------|
E ----------------------------------|



 Verse 1: (0:13)

A                        Dsus2 
  You took hold of my affections
A                            Dsus2 
  With your Bible and your sword 
A                    Dsus2 
  Your celebrity connections 
A                             Dsus2 
  I was not used to keeping score 


 (0:37)

  A                          Dsus2
E --7--7--7--7--7-------7--7--7--7--|
B ----------------------------------|
G ---6--6--6--6--6--7--7--7--7--7---|
D ----------------------------------|
A ----------------------------------|
E ----------------------------------|
    From your fine guilded chalice 

  A                            Dsus2 
E --7--7--7--7--7-------------------|
B ----------------------7--7--7--7--|
G ---6--6--6--6--6--7--7--7--7--7---|
D ----------------------------------|
A ----------------------------------|
E ----------------------------------|
    I drank all your cheap red wine 

  A                            Dsus2 
E ----------------------------------|
B ----------------------------------|
G ----6---6---6---6---6---6---6-----|
D --7---7---7---7---7---7---7-------|
A ----------------------------------|
E ----------------------------------|
    It was a good place to be Judas (Judas) 

  A                          Dsus2 
E ----------------------------------|
B ----------------------------------|
G ----6---6---6---------------------|
D --7---7---7---7--7-7-7-7---7-6-4--|
A ----------------------------------|
E ----------------------------------|
    Hiding pearls from the swine 



 Chorus: [ x2 ] (1:01)

A
I'll bring the sun, I'll bring the sun

Dsus2
I'll bring the sun, I'll bring the sun

A
I'll bring the sun, I'll bring the sun

      Dsus2
E -----------------------|
B -----------------------|
G -----------------------|
D --0-0-2-2-4-4-6-6-7-7--|
A -----------------------|
E -----------------------|
  To you when I come 



 [ Repeat Intro ]



 Verse 2: (1:40)

A                       Dsus2
  You won me just as I failed you 
A                                 Dsus2
  Fist full of cake, who could refuse 
A                               Dsus2
  All of my love got stuck in traffic (traffic) 
A                               Dsus2
  Two thousand miles away from you


 (2:05)

  A                       Dsus2
E --7--7--7--7--7-------7--7--7--7--|
B ----------------------------------|
G ---6--6--6--6--6--7--7--7--7--7---|
D ----------------------------------|
A ----------------------------------|
E ----------------------------------|
    Bleeding on into the telephone 

  A                            Dsus2
E --7--7--7--7--7-------------------|
B ----------------------7--7--7--7--|
G ---6--6--6--6--6--7--7--7--7--7---|
D ----------------------------------|
A ----------------------------------|
E ----------------------------------|
    On a reupholstered bed of nails 

  A                            Dsus2
E ----------------------------------|
B ----------------------------------|
G ----6---6---6---6---6---6---6-----|
D --7---7---7---7---7---7---7-------|
A ----------------------------------|
E ----------------------------------|
    I'm a long, long way from home 

  A                                   Dsus2
E ----------------------------------|
B ----------------------------------|
G ----6---6---6---------------------|
D --7---7---7---7--7-7-7-7---7-6-4--|
A ----------------------------------|
E ----------------------------------|
    I hope my jet lagged heart don't fail 



 Chorus: [ x2 ] (2:29)

A
I'll bring the sun, I'll bring the sun

Dsus2
I'll bring the sun, I'll bring the sun

A
I'll bring the sun, I'll bring the sun

      Dsus2
E -----------------------|
B -----------------------|
G -----------------------|
D --0-0-2-2-4-4-6-6-7-7--|
A -----------------------|
E -----------------------|
  To you when I come


 Outro: (2:55)

   A           A           A           A           A  
E ------------------------------------------------------------|
B ------------------------------------------------------------|
G ------------------------------------------------------------|
D -7-7-7-7-7-7-7-7-7-7-7--------------------------------------|
A -----------------------12-12-12-10-10-10-7-7-7-5-5-5-3-3-3--|
E ------------------------------------------------------------|
  (Come!)

   A           A           A           A        A  
E -------------------------------------------------|
B -------------------------------------------------|
G -------------------------------------------------|
D -------------------------------------------------|
A -10-10-10-7-7-7-5-5-5-3-3-3-2-2-2-0-0-0-0-0-0-0--|
E -------------------------------------------------|
Добавлено: 01.06.2012
Другие материалы по этой песне:
  • Аккорды и текст

Страница создана 01.06.2012
http://primanota.ru/jason-collett/ill-bring-the-sun-chords.htm
Привет, Гость.
Предлагаем пройти революционный курс по гитаре.
Подарок от PrimaNota.Ru, забирай!