PrimaNota.ru - самый крупный в мире бесплатный архив песенных текстов, аккордов, табулатур и нот


Jason Becker - Mabels Fatal Fable - аккорды и текст, таба, видео

Регистрация Запомнить меня
Войти через:  Facebook Google Twitter Vk Yandex Mail.ru

Jason Becker - Mabels Fatal Fable - аккорды и текст, таба, видео

Печатать
Просмотров: 158
Mabels Fatal Fable
Jason Becker
Jason Becker: Mabel's Fatal Fable

                        Transcribed By mkosonen@hotmail.com

                        Transcribed from a closeup video of
                        Jason playing it the fingerings are
                        pretty much 99.90orrect.

                        The Ultimate Shred Page 
                        http://www.geocities.com/SunsetStrip/Lounge/5770/       

I---------------------------------------------------------------------
I-*----------------------------------------------------------10-12-13-
I--------------------9-10-9--------------------------9-10-12----------
I------------9-10-12--------12-10-9----------9-10-12------------------
I-*-12-11-12------------------------12-11-12--------------------------
I---------------------------------------------------------------------


-------------------------------------------------------------------
----------------8-10-8---------------------------------------------
---------7-9-10--------10-9-7---------7-9-10-----------------------
-10-9-10----------------------10-9-10--------7-9-10-6-7-9----------
-------------------------------------------------------------------
-------------------------------------------------------------------

-------------------------------------------------------------------
-------------------------------------------------------------------
--------------------------5-----7-----9-----10---------------------
-6-----7-----9-----10-------7-6---7-6---7-6----7-6-----------------
---8-7---8-7---8-7----8-7------------------------------------------
-------------------------------------------------------------------

-----------------------------------------------------------I
---------------------------------------------------------*-I
-10-9-7-10-9-7----9-7-----------------------9-8-9----------I
---------------10-----10-9-10-12-10-9-6-7-9-------6-7-9----I
---------------------------------------------------------*-I
-----------------------------------------------------------I

-------------------------------------------------------------------
-------------------------------------------------------------------
------------------9-10-9------------------------7-9-7--------------
----------9-10-12--------12-10-9---------7-9-10-------10-9-7-------
-12-11-12------------------------10-9-10---------------------------
-------------------------------------------------------------------

-------------------------------------------------------------------
-------------------------------------------------------------------
-------------5-7-5---------------------------4-5-6-5-6-7-6-7-8-----
-------6-7-9-------9-7-6-7-9-10-6-7-9-7-9-10-----------------------
-8-7-8-------------------------------------------------------------
-------------------------------------------------------------------

-----7-12---16-12----------12-13-12-10-----------------------------
---9------9-------12----12-------------13-12-10--------------------
-9-------------------13-------------------------12-10-9------------
--------------------------------------------------------12-10-9----
-------------------------------------------------------------------
-------------------------------------------------------------------

-------------------------------------------------------------------
-------------------------------------------------------------------
-------9-----13-9--------9--10-9-7-10-9-7-9-7----------------------
---6-9---9-6------9----9----------------------10-9-10-9------------
-7------------------11---------------------------------------------
-------------------------------------------------------------------

-------------------------------------------------------------------
-------------------------------------------------------------------
------------------9-10-9------------------------7-9-7--------------
----------9-10-12--------12-10-9---------7-9-10-------10-9-7-------
-12-11-12------------------------10-9-10---------------------------
-------------------------------------------------------------------

---------------------------------------10-15-10--------------------
------------------------------------12----------12-----------------
-------------5-7-5---------------12----------------12--------------
-------6-7-9-------9-7-6----9-12----------------------12-9---------
-8-7-8-------------------10----------------------------------------
-------------------------------------------------------------------

-15-11----------------------------11-15-10--------------------------10-
-------13----------------------13----------12--------------------12----
----------12----------------12----------------12--------------12-------
-------------13----------13----------------------12-9----9-12----------
----------------15-10-15------------------------------10---------------
-----------------------------------------------------------------------


-15-11----------------------------11----10-15----11-15----10-15----11-15-
-------13----------------------13----12-------13-------12-------13-------
----------12----------------12-------------------------------------------
-------------13----------13----------------------------------------------
----------------15-10-15-------------------------------------------------
-------------------------------------------------------------------------

----10-15----11-15----10-15----11-15-16--
-12-------13-------12-------13-----------
-----------------------------------------
-----------------------------------------
-----------------------------------------
-----------------------------------------
Добавлено: 29.05.2012
Другие материалы по этой песне:

Страница создана 29.05.2012
http://primanota.ru/jason-becker/mabels-fatal-fable-chords.htm
Привет, Гость.
Предлагаем пройти революционный курс по гитаре.
Подарок от PrimaNota.Ru, забирай!