PrimaNota.ru - самый крупный в мире бесплатный архив песенных текстов, аккордов, табулатур и нот


Jason Becker - Altitudes - аккорды и текст, таба, видео

Регистрация Запомнить меня
Войти через:  Facebook Google Twitter Vk Yandex Mail.ru

Jason Becker - Altitudes - аккорды и текст, таба, видео

Печатать
Просмотров: 244
Altitudes
Jason Becker
		   BACK
Jason Becker 'Perpetual Burn'
Altitudes

--------------------------------------------------------------------------------
laespyral@hotmail.com
orgullosamente mexicano
 Jason Becker Altitudes
                                                Transcribed by: BK 3001
                                                bk3001@jorsm.com

Great picking exercise !! From the middle section, left channel.

-|-14-p12----------12-14-p12-----------12-14-p12-------|-16-p12----------12----
-|--------14----14-----------14----14------------14----|--------14----14-------
-|-----------13-----------------13------------------13-|-----------13----------
-|-----------------------------------------------------|-----------------------
-|-----------------------------------------------------|-----------------------
-|-----------------------------------------------------|-----------------------


-16-p12----------12-16-p12-------|-14--p12----------12-14-p12----------12-14---
--------14----14-----------14----|---------14----14-----------14----14---------
-----------13-----------------13-|------------13-----------------13------------
---------------------------------|---------------------------------------------
---------------------------------|---------------------------------------------
---------------------------------|---------------------------------------------


-p12-------|-11-h12-p11----------11-122-p11----------11-12-p11------|-/16-p12--
-----14----|------------14----14------------14----14----------14----|----------
--------13-|---------------13------------------13----------------13-|----------
-----------|--------------------------------------------------------|----------
-----------|--------------------------------------------------------|----------
-----------|--------------------------------------------------------|----------


---------12-/21-p16----------16-21-p166-------21-p17----------17-24-p17--------
-14----14-----------17----17------------17-----------17----17-----------17-----
----13-----------------18------------------18-----------18-----------------18--
-------------------------------------------------------------------------------
-------------------------------------------------------------------------------
-------------------------------------------------------------------------------


----17-21-p17-------|-19-p16-----------16-19-p16----------16-19-p16-------|----
-17-----------17----|--------17----17------------17----17-----------17----|----
-----------------18-|-----------16------------------16-----------------16-|----
--------------------|-----------------------------------------------------|----
--------------------|-----------------------------------------------------|----
--------------------|-----------------------------------------------------|----


-19-p14----------14-19-p14----------144-19-p14-------|-17-p14------------------
--------16----16-----------16----16------------16----|--------16---------------
-----------16-----------------16------------------16-|-----------16-p14--------
-----------------------------------------------------|------------------16-----
-----------------------------------------------------|-------------------------
-----------------------------------------------------|-------------------------


----------------|-12-h16-p12-----------12-16-p12----------12-16-p12-------|----
----------------|------------14----14------------14----14-----------14----|----
---------14-h16-|---------------13------------------13-----------------13-|----
-p13-h16--------|---------------------------------------------------------|----
----------------|---------------------------------------------------------|----
----------------|---------------------------------------------------------|----


-16-p14----------14-16-p14----------144-16-p14-------|-16-p12----------12-16---
--------16----16-----------16----16------------16----|--------14----14---------
-----------13-----------------13------------------13-|-----------13------------
-----------------------------------------------------|-------------------------
-----------------------------------------------------|-------------------------
-----------------------------------------------------|-------------------------


-p12----------12-16-p12-------|-18-p155---------15-21-p18----------18-24-p21---
-----14----14-----------14----|---------17---17-----------20----20-------------
--------13-----------------13-|-----------18-----------------21----------------
------------------------------|------------------------------------------------
------------------------------|------------------------------------------------
------------------------------|------------------------------------------------


----21-23-p19----|-19----------------119----------|-17-p14---------14-p11------
-23-----------19-|----19----------19-----19----19-|-------16--------------13---
-----------------|-------20----20-----------20----|----------16-14-------------
-----------------|----------21--------------------|----------------------------
-----------------|--------------------------------|----------------------------
-----------------|--------------------------------|----------------------------


------------------------17-p14-----------------------------|-------------------
-----------16-p13----13--------16--------------------------|-------------------
-14-p11-----------14--------------16-pp14------------------|-------------------
--------13--------------------------------16-p13-----------|-------------------
-------------------------------------------------15-p12----|----------12-14----
--------------------------------------------------------14-|-11-13-14----------
                                                            staccato pick

----------------------|--------------------------------------------------------
----------------------|--------------------------------------------------------
-------------14-16-17-|--------------------------------------------------------
----13-15-16----------|--------------------------------------------------------
-15-------------------|--------------------------------------------------------
----------------------|--------------------------------------------------------     
Добавлено: 12.08.2013
Другие материалы по этой песне:

Страница создана 21.03.2012
http://primanota.ru/jason-becker/altitudes-chords.htm
Привет, Гость.
Предлагаем пройти революционный курс по гитаре.
Подарок от PrimaNota.Ru, забирай!