PrimaNota.ru - самый крупный в мире бесплатный архив песенных текстов, аккордов, табулатур и нот


Jason Anderson - July 4 2004 - таба, видео

Регистрация Запомнить меня
Войти через:  Facebook Google Twitter Vk Yandex Mail.ru

Jason Anderson - July 4 2004 - таба, видео

Печатать
Просмотров: 83
Jason Anderson - July 4, 2004


Tab by Avi Yaacov, Israel



amazing song...



Whole song:
F / G / Em / F    (with palm mute on/off)



~  Solo at 3:38  ~


Played by two guitars, one repeating the other pretty much with tiny changes... 

e|------------|-------------|-------------|---------------|
B|------------|-------------|-------------|---------------|
G|------5-----|--7b9r7r5----|-------------|---------------|
D|---repeat---|----------7--|------5-5/7--|------5-5/7-5--|
A|------------|-------------|--5/7--------|--5/7----------|
E|------------|-------------|-------------|---------------|

e|-------------------------------------|----------------|
B|-------------------------------/8vv--|------8-8/10-8--|
G|--------------------------7b9r5------|--7/9-----------|
D|------5-7-------5-5/7-5--------------|----------------|
A|--5/7-------5/7----------------------|----------------|
E|-------------------------------------|----------------|


e|--------------------|----------------------|
B|------8-10p8---8-8--|------8-10-----8-10---|
G|--7/9--------9------|--7/9------7/9--------|
D|--------------------|----------------------|
A|--------------------|----------------------|
E|--------------------|----------------------|


e|----------------------------------|-------8---|
B|------8-8h10p8---8---8h10p8---8---|--8h10-----|
G|--7/9----------9------------9-----|-----------|
D|--------------------<< repeat >>--|--repeat---|
A|-------------------------lick-----|-----------|
E|----------------------------------|-----------|


e|--10-10-10-10-10-keep picking this note--10b12r8-------|
B|---------------------while slowly bending--------10vv--|
G|-------------------------------------------------------|
D|-------------------------------------------------------|
A|-------------------------------------------------------|
E|-------------------------------------------------------|


e|------------------|---------------15-15-15-----------|
B|--10-10/----------|--/17-15----15----------17p15-----|
G|------slide back--|---------17-------------------17--|
D|------------------|----------------------------------|
A|------------------|----------------------------------|
E|------------------|----------------------------------|


e|-----------------|-------------------------------------|
B|--15b17r13-------|--12b13-12b13-12b13--12b13--12b13----|
G|-----------14vv--|-------------------------------------|
D|-----------------|----------------repeat as necessary--|
A|-----------------|-------------------------------------|
E|-----------------|-------------------------------------|


e|--------------------------------|
B|--12-12--11-11--10-10/----------|
G|--------------------slide back--|
D|--------------------------------|
A|--------------------------------|
E|--------------------------------|


e|------------|---------------|-------------------------|
B|------------|----------6/8--|------8-8--8-8-8--6-6-6--|
G|------5vv---|--7b9r7r5------|--7/9------9-9-8--7-7-7--|
D|---repeat---|---------------|-------------------------|
A|------------|---------------|-------------------------|
E|------------|---------------|-------------------------|


e|----------------------|
B|--5-5-5--5b--5b-vv----|
G|--5-5-5--7b--7b-vv----|
D|----------------------|
A|----------------------|
E|----------------------|
Добавлено: 03.09.2015
Другие материалы по этой песне:
  • Аккорды и текст

Страница создана 03.09.2015
http://primanota.ru/jason-anderson/july-4-2004-chords.htm
Привет, Гость.
Предлагаем пройти революционный курс по гитаре.
Подарок от PrimaNota.Ru, забирай!