PrimaNota.ru - самый крупный в мире бесплатный архив песенных текстов, аккордов, табулатур и нот


Jason Aldean - Gonna Know We Were Here - аккорды и текст, видео

Регистрация Запомнить меня
Войти через:  Facebook Google Twitter Vk Yandex Mail.ru

Jason Aldean - Gonna Know We Were Here - аккорды и текст, видео

Печатать
Просмотров: 78
Авторы: Brett James, Brett Beavers

Gonna Know We Were Here
Jason Aldean
 Intro
F#m D A E
-----------------------------------------------|
-------------------2----------------------2----|
--2-4-2-4-2-4-2-4----4----2-4-2-4-2-4-2-4---4--|
-----------------------------------------------|
-----------------------------------------------|
-----------------------------------------------|
                                                x2
-----------------------------------------------|
-----------------------------------------------|
-----------------------------------------------|
--7--6--4-2---7--6--4-2------------------------|
-----------------------------------------------|
-----------------------------------------------|

 F#m
 You got the gas

 I got the matches
 D
 We gonna turn this town to ashes
 A
 Cause they ain't never seen nothing like us
 E
 Ain't heard loud till we turn it up
 F#m
 I got the wild

 You got the crazy
 D
 You know that's why I love you baby
 A
 Cause your motor runs just as fast as mine
 E
 Pedal to the metal, keep your throttle down all night

---------------------|
---------------------|
---------------------|   And we only get one life
---------------------|
--5-/-7-/-9-/-11-----|
---------------------|

 F#m
 Ain't scared to ride this train
 D
 Make a few marks, leave a few stains
 A
 Might slam just a little too hard
 E
 Might take it just a little too far
 F#m
 Might burn out like a firework,
 D
 Like a shooting star across the sky
 A                                   E
 And we may not be around in 20 years but they're sure gonna know we were here

F#m D A E
-----------------------------------------------|
-------------------2----------------------2----|
--2-4-2-4-2-4-2-4----4----2-4-2-4-2-4-2-4---4--|
-----------------------------------------------|
-----------------------------------------------|
-----------------------------------------------|

-----------------------------------------------|
-----------------------------------------------|
-----------------------------------------------|
--7--6--4-2---7--6--4-2------------------------|
-----------------------------------------------|
-----------------------------------------------|

 F#m
 People talk girl

 You know damn well
 D
 When they got a good tale to tell
 A
 Let's give them something they ain't never seen
 E
 A little rated R redneck dream
 F#m
 Let's blaze a trail through the dirty south
 D
 Or give them something they can talk about
 A
 A little story that they won't forget
 E
 Long after we ride off into the sunset
---------------------|
---------------------|
---------------------| Baby, cause we ain't dead yet, baby
---------------------|
--5-/-7-/-9-/-11-----|
---------------------|


 F#m
 Ain't scared to ride this train
 D
 Make a few marks, leave a few stains
 A
 Might slam just a little too hard
 E
 Might take it just a little too far
 F#m
 Might burn out like a firework,
 D
 Like a shooting star across the sky
 A                             E
 Yeah we may not be around in 20 years but they're sure gonna know we were here

 Single strum
 F#m D A E

         D
 We only get one chance around
      E
 This runaway roller coaster train
     D
 And it ain't slowing down
     E
 So baby let go and remember our name

 F#m D A E

 F#m
 Ain't scared to ride this train
 D
 Make a few marks, leave a few stains
 A
 Might slam just a little too hard
 E
 Might take it just a little too far
 F#m
 Might burn out like a firework,
 D
 Like a shooting star across the sky
 A                                E
 Yeah we may not be around in 20 years
        D                            E
 Oh, we may not be around in 20 years, but they're sure gonna know we were here
-----------------------------------------------|
-------------------2----------------------2----|
--2-4-2-4-2-4-2-4----4----2-4-2-4-2-4-2-4---4--|
-----------------------------------------------|
-----------------------------------------------|
-----------------------------------------------|
                                                x2
-----------------------------------------------|
-----------------------------------------------|
-----------------------------------------------|
--7--6--4-2---7--6--4-2------------------------|
-----------------------------------------------|
-----------------------------------------------|
 two strums
F#m
Добавлено: 03.10.2014
Другие материалы по этой песне:
  • Аккорды и текст

Страница создана 10.08.2014
http://primanota.ru/jason-aldean/gonna-know-we-were-here-chords.htm
Привет, Гость.
Предлагаем пройти революционный курс по гитаре.
Подарок от PrimaNota.Ru, забирай!