PrimaNota.ru - самый крупный в мире бесплатный архив песенных текстов, аккордов, табулатур и нот


Jars Of Clay - Four Seven - аккорды и текст, таба, видео

Регистрация Запомнить меня
Войти через:  Facebook Google Twitter Vk Yandex Mail.ru

Jars Of Clay - Four Seven - аккорды и текст, таба, видео

Печатать
Просмотров: 108
Four Seven
Jars Of Clay
		   e: Sun, 22 Feb 1998 18:52:50 -0800

Author/Artist: Jars of Clay
Title: Four Seven
Album: Jars of Clay
Transcribed by: Brian Germer (Soul Detergent Music)
Email: BJG20773@ix.netcom.com

This song has one acoustic in the EABEBE tuning and one in standard.
I saw them play this live in Portland, so it is pretty accurate.

Intro: 1st guitar - Standard tuning  (play fast!)

------------------------------------------------------------------------------
------------------------------------------------------------------------------
------------------------------------------------------------------------------
------------------------------------------------------------------------------
--11-11--9-9--11-11--9--11-9-11-9-----11-11--9-9--11-11--9--11-9-11-9---------
--9--9---9-9--9--9---9--9--9-9--9-----0--0---0-0--0--0---0--0--0-0--0---------


------------------------------------------------------------------------|-|---
------------------------------------------------------------------------|-|---
------------------------------------------------------------------------|-|---
--11-11--9-9--11-11--9--11-9-11-9-----11-11--9-9--11-11--9--11-9-11-9---|-|---
--9--9---9-9--9--9---9--9--9-9--9-----0--0---0-0--0--0---0--0--0-0--0---|-|---
------------------------------------------------------------------------|-|---
 2nd guitar part: EABEBE tuning (over entire section
above)

------------------------9--------------|--------------------------------------
----9---------0---------0---------5----|------0--------0--------5--------7----
----0---------7---------9---------0----|------5--------7--------0--------0----
----9---------0---------0---------5----|------0--------0--------5--------7----
----0---------7---------9---------0----|------5--------7--------0--------0----
----9---------0-------------------5----|------0--------0--------5--------7----
   C#m        E        F#m        A     Chorus: 2nd guitar
chords


C#m E         F#m  A
We  have this treasure
C#m E       F#m     A
in  earthen vessels
   C#m  E         F#m A
to show that this power
        C#m      E        F#m  A
is from God, and not from us

The rest of the song:  D    E    A   B  (for 2nd guitar, see chords
above)

Woh, e-yeah, woh ho oh oh oh...

Written by Jars of Clay
Copyright 1995 BridgeBuilding Music (BMI)/Pogostick Music (BMI). All
rights reserved.     
Добавлено: 24.06.2013
Другие материалы по этой песне:
  • Аккорды и текст

Страница создана 25.03.2012
http://primanota.ru/jars-of-clay/four-seven-chords.htm
Привет, Гость.
Предлагаем пройти революционный курс по гитаре.
Подарок от PrimaNota.Ru, забирай!