PrimaNota.ru - самый крупный в мире бесплатный архив песенных текстов, аккордов, табулатур и нот


Jarrod Gorbel - Weight - таба, видео

Регистрация Запомнить меня
Войти через:  Facebook Google Twitter Vk Yandex Mail.ru

Jarrod Gorbel - Weight - таба, видео

Печатать
Просмотров: 127
Новый альбом группы 'Черный Кузнец' по культовому сериалу 'Сверхъестественное'!
----------------------------------------------------------------------------
                        Weight - Jarrod Gorbel
----------------------------------------------------------------------------
Tabbed by: adslam3

Tuning: Standard

Intro (played 2 times) - Strumming isn't shown, these are the chords
e|-------------------------------------------------------------------------|
B|-------------------------------------------------------------------------|
G|-------------------------------------------------------------------------|
D|-0--0-0-0-0---0--0-0---0--0-0-0-0---0---0--------------------------------|
A|-2--2-3-5-9---9--7-5---2--2-3-5-9---9---10-------------------------------|
E|-3--3-5-7-10--10-8-7---3--3-5-7-10--10--12-------------------------------|

VERSE (play this 2 times)
e|-------------------------------------------------------------------------|
B|-------------------------------------------------------------------------|
G|-------------------------------------------------------------------------|
D|--0-0-7-7-0-0-7-7-0-0-7-7-0-0-7-7---0-0-9-9-0-0-9-9-0-0-9-9-10-10-9-0----|
A|--5-5-5-5-5-5-5-5-5-5-5-5-5-5-5-5---7-7-7-7-7-7-7-7-7-7-7-7-7--7--7-7----|
E|--7-7-7-7-7-7-7-7-7-7-7-7-7-7-7-7---8-8-8-8-8-8-8-8-8-8-8-8-8--8--8-8----|

PRE-CHORUS
e|-------------------------------------------------------------------------|
B|-------------------------------------------------------------------------|
G|-------------------------------------------------------------------------|
D|-0-0-5-5-0-0-5-5--0-0-7-7-0-0-7-7---9~-----------------------------------|
A|-3-3-3-3-3-3-3-3--5-5-5-5-5-5-5-5---7~-----------------------------------|
E|-5-5-5-5-5-5-5-5--7-7-7-7-7-7-7-7---8~-----------------------------------|

CHORUS (Play this 2 times) "You don't have to let this go..."
e|-0-0-0-0-0-0-0-0-0-0-0-0-0-0-0-0--0-0-0-0-0-0-0-0-0-0-0-0-0-0-0-0--------|
B|-3-3-3-3-3-3-3-3-3-3-3-3-3-3-3-3--3-3-3-3-3-3-3-3-3-3-3-3-3-3-3-3--------|
G|-0-0-0-0-0-0-0-0-0-0-0-0-0-0-0-0--0-0-0-0-0-0-0-0-0-0-0-0-0-0-0-0--------|
D|-0-0-0-0-0-0-0-0-0-0-0-0-0-0-0-0--2-2-2-2-2-2-2-2-2-2-2-2-2-2-2-2--------|
A|-2-2-2-2-2-2-2-2-2-2-2-2-2-2-2-2--3-3-3-3-3-3-3-3-3-3-3-3-3-3-3-3--------|
E|-3-3-3-3-3-3-3-3-3-3-3-3-3-3-3-3-----------------------------------------|

REPEAT INTRO, VERSE, AND CHORUS

BRIDGE (starts at 2:10)
e|-------------------------------------------------------------------------|
B|--------------This section is played two times --------------------------|
G|-------------------------------------------------------------------------|
D|--0-0-7-7-0-0-7-7-0-0-7-7-0-0-7-7---0-0-9-9-0-0-9-9-0-0-9-9-10-10-9-0----|
A|--5-5-5-5-5-5-5-5-5-5-5-5-5-5-5-5---7-7-7-7-7-7-7-7-7-7-7-7-7--7--7-7----|
E|--7-7-7-7-7-7-7-7-7-7-7-7-7-7-7-7---8-8-8-8-8-8-8-8-8-8-8-8-8--8--8-8----|

* This section is also played twice
e|-0-0-0-0-0-0-0-0--0-0-0-0-0-0-0-0--0-0-0-0-0-0-0-0-0-0-0-0-0-0-0-0-------|
B|-3-3-3-3-3-3-3-3--3-3-3-3-3-3-3-3--3-3-3-3-3-3-3-3-3-3-3-3-3-3-3-3-------|
G|-0-0-0-0-0-0-0-0--2-2-2-2-2-2-2-2--0-0-0-0-0-0-0-0-0-0-0-0-0-0-0-0-------|
D|-2-2-2-2-2-2-2-2--2-2-2-2-2-2-2-2--2-2-2-2-2-2-2-2-2-2-2-2-2-2-2-2-------|
A|-2-2-2-2-2-2-2-2--0-0-0-0-0-0-0-0--3-3-3-3-3-3-3-3-3-3-3-3-3-3-3-3-------|
E|-0-0-0-0-0-0-0-0-------------------0-0-0-0-0-0-0-0-0-0-0-0-0-0-0-0-------|

REPEAT CHORUS UNTIL END

That's it, you'll get the hand of it after a few times through.
Enjoy.


************************************

| /   slide up
| \   slide down
| h   hammer-on
| p   pull-off
| ~   vibrato
| +   harmonic
| x   Mute note
| b   Bend
| pb  Pre-bend
| br  Bend release
| pbr Pre-bend release
| brb Bend release bend

************************************
Добавлено: 09.04.2012
Другие материалы по этой песне:
  • Аккорды и текст

Страница создана 09.04.2012
http://primanota.ru/jarrod-gorbel/weight-chords.htm
Привет, Гость.
Предлагаем пройти революционный курс по гитаре.
Подарок от PrimaNota.Ru, забирай!