PrimaNota.ru - самый крупный в мире бесплатный архив песенных текстов, аккордов, табулатур и нот


Jarrod Alonge - Pop Punk Pizza Party - таба, видео

Регистрация Запомнить меня
Войти через:  Facebook Google Twitter Vk Yandex Mail.ru

Jarrod Alonge - Pop Punk Pizza Party - таба, видео

Печатать
Просмотров: 88
D#|-x-x-x---------------------------------------------------------|
A#|-x-x-x---------------------------------------------------------|
F#|-x-x-x-7--77-77-x-11-1111-1111-x-9-99-99-x-11-11-x-6-6-x-------|
C#|-x-x-x---------------------------------------------------------|
G#|-x-x-x-5--55-55-x-9---9-9--9-9-x-7-77-77-x--9--9-x-4-4-x-------|
C#|-x-x-x---------------------------------------------------------|

D#|---------------------------------------------------------------|
A#|---------------------------------------------------------------|
F#|-7-77-77-x-11-1111-1111-x-9-9-(12x)-6-6-6----------------------|
C#|---------------------------------------------------------------|
G#|-5-55-55-x--9--9-9--9-9-x-7-7-------4-4-4----------------------|
C#|---------------------------------------------------------------|

D#|------------------------------------------------9--------------|
A#|----------10-10---------10-10------------10----10--------------|
F#|--7-7-9-9-------7-7-9-9-------7-7-9-(2x)--9-----9--------------|
C#|---------------------------------------------------------------|
G#|---------------------------------------------------------------|
C#|---------------------------------------------------------------|

D#|-----------x-x-x-----------------------------------------------|
A#|-----------x-x-x-----------------------------------------------|
F#|---7-(10x)-x-x-x---11-(6x)-------------------------------------|
C#|-0---------x-x-x-0---------7-5-4-2--0------0-------------------|
G#|-0-5-------x-x-x-0--9------7-5-4-2--0------0-------------------|
C#|-0---------x-x-x-0---------7-5-4-2--0------0-------------------|

D#|----------------------------------------2(x)-------------------|
A#|---------------------------------------------------------------|
F#|-11-11-(6x)-14-14-14-14-14\11---7-(10x)------------------------|
C#|---------------------------------------------------------------|
G#|--9--9------12-12-12-12-12\-9---5------------------------------|
C#|---------------------------------------------------------------|

D#|---------------------------------------------------------------|
A#|---------------------------------------------------------------|
F#|---------------------------------------------------------------|
C#|-0-00-000-7-77-777-5-55-555-555-555-(2x)-2---5----2-xx---------|
G#|-0-00-000-7-77-777-5-55-555-555-555------2---5----2-xx---------|
C#|-0-00-000-7-77-777-5-55-555-555-555------2---5----2-xx---------|
repeat intro
D#|---------------------------------------------------------------|
A#|---------------------------------------------------------------|
F#|-----------7-(10x)------7-(6x)-------7-(10x)------7-(8x)-------|
C#|-7-5-4-2/5---------55-5--------5-4-0---------00-0--------------|
G#|-7-5-4-2/5-5-------55-5-5------5-4-0-5-------00-0-5------------|
C#|-7-5-4-2/5---------55-5--------5-4-0---------00-0--------------|

D#|---------------------------------------------------------------|
A#|---------------------------------------------------------------|
F#|-------11-(10x)-----11-(6x)-------11-(10x)------11-(8x)--------|
C#|-0-4-5---------55-5---------5-4-0----------00-0----------------|
G#|-0-4-5--9------55-5--9------5-4-0--9-------00-0--9-------------|
C#|-0-4-5---------55-5---------5-4-0----------00-0----------------|

D#|---------------------------------------------------------------|
A#|---------------------------------------------------------------|
F#|---------------------------------------------------------------|
C#|-0-4-5----7-(16x)----------------------------------------------|
G#|-0-4-5----7-----------repeat verse-----------------------------|
C#|-0-4-5----7----------------------------------------------------|

D#|---------------------------------------------------------------|
A#|---------------------------------------------------------------|
F#|---------------------------------------------------------------|
C#|-2----5----0-----4-----------------------------------7---------|
G#|-2----5----0-----5---222222222222-44-5\--chorus-then 7---------|
C#|-2----5----0-----4---222222222222-44-5\--------------7---------|


D#|---------------------------------------------------------------|
A#|---------------------------------------------------------------|
F#|---------------------------------------------------------------|
C#|--------------------------------------4------------------------|
G#|-5-(16x)-0-(8x)-5-(8x)-5-(16x)-0-(8x)-5------------------------|
C#|-5-------0------4------5-------0------4------------------------|

D#|---------------------------------------------------------------|2x
A#|---------5-5-8-8-----------------------------------------------|
F#|-7-(12x)-7-7-7-7-7-(9x)-6-6-6-6-6-6-6--------------------------|
C#|------------------------7-7-7-7-7-7-7--------------------------|
G#|---------------------------------------------------------------|
C#|---------------------------------------------------------------|

D#|---------------------------------------------------------------|
A#|-7-(8x)-5-(4x)-8-(4x)------------------------------------------|
F#|-7------7------7-----------------------------------------------|
C#|---------------------------------------------------------------|
G#|---------------------------------------------------------------|
C#|---------------------------------------------------------------|

D#|-10-(9x)-9-(9x)-5-(9x)-------10--------------------------------|
A#|---------------------------------------------------------------|
F#|---------------------------------------------------------------|
C#|---------------------------------------------------------------|
G#|---------------------------------------------------------------|
C#|---------------------------------------------------------------|
Добавлено: 11.06.2016
Другие материалы по этой песне:
  • Аккорды и текст

Страница создана 11.06.2016
http://primanota.ru/jarrod-alonge/pop-punk-pizza-party-chords.htm
Привет, Гость.
Предлагаем пройти революционный курс по гитаре.
Подарок от PrimaNota.Ru, забирай!