PrimaNota.ru - самый крупный в мире бесплатный архив песенных текстов, аккордов, табулатур и нот


Jarrod Alonge - Im So Scene - таба, видео

Регистрация Запомнить меня
Войти через:  Facebook Google Twitter Vk Yandex Mail.ru

Jarrod Alonge - Im So Scene - таба, видео

Печатать
Просмотров: 101
Уроки эстрадного вокала в Санкт-Петербурге
I'm So Scene 2.0 (ft. Johnny Franck)
Amidst The Grave's Demons (Jarrod Alonge)


I wanted to put the artist name as "Amidst The Graves Demons" but it wasn't in UG database.
Jarrod Alonge is in there so yea you should get it.

tabbed only one guitar part, no harmonies


Tuning: Drop C


intro breakdown
D|-------------------------------------------------------------------|
A|-------------------------------------------------------------------|
F|-------------------------------------------------------------------|
C|-------------------------------------------------------------------|
G|-0-0-0-0-0-------0-0-0-0-0-----------0-0---0-0---0-0-0-0-0---------|
C|-0-0-0-0-0-------0-0-0-0-0-----------0-0---0-0---0-0-0-0-0---------| x3
   . . . . .       . . . . .           . .   . .   . . . . .

D|-------------------------------------------------------------------|
A|-------------------------------------------------------------------|
F|-------------------------------------------------------------------|
C|---------------------------------------------------------*5--------|
G|-0-0-0-0-0-------0-0-0-0-0-----------0-0---0-0---0-0-0-0-----------|
C|-0-0-0-0-0-------0-0-0-0-0-----------0-0---0-0---0-0-0-0-----------|
   . . . . .       . . . . .           . .   . .   . . . . 


"Let's go"
D|------------------------------------------------------------------|
A|------------------------------------------------------------------|
F|------------------------------------------------------------------|
C|------------------------------------------------------------------|
G|-0-0-0-0-0~------0-0-0-0-0~----------0-0~--0-0~--0-0-0-0-0~-------|
C|-0-0-0-0-0~------0-0-0-0-0~----------0-0~--0-0~--0-0-0-0-0~-------| x2
   . . . . .       . . . . .           . .   . .   . . . . .

D|------------------------------------------------------------------|
A|------------------------------------------------------------------|
F|------------------------------------------------------------------|
C|------------------------------------------------------------------|
G|-0-0-0-0-0-------0-0-0-0-0-----------0-0---0-0---0-0-0-0-0--------|
C|-0-0-0-0-0-------0-0-0-0-0-----------0-0---0-0---0-0-0-0-0--------| x2
   . . . . .       . . . . .           . .   . .   . . . . .





Verse:
kinda djent, more than possibly not correct
"My style doesn't blend..."
D|------------------------------------------------------------------|
A|------------------------------------------------------------------|
F|------------------------------------------------------------------|
C|------------------------------------------------------------------|
G|------------------------------------------------------------------|
C|-1---0-0-0-0---0-12---0-0---0-0---0-0-0-0---0-0---0-0-0-3---0-0---|--|
       . . .     .      .     .     . . .     .     . . .     .        |x2
D|------------------------------------------------------------------|--| 
A|------------------------------------------------------------------|
F|------------------------------------------------------------------|
C|------------------------------------------------------------------|
G|------------------------------------------------------------------|
C|-1---0-0-0-0---0-12---0-0---0-0---0-0---0-0---0-3---0-0---0-0-0-0-|
       . . .     .      .     .     .     .     .     .     . . . . 



"I've got my guitars tuned down to..."
D|------------------------------------------------------------------|
A|------------------------------------------------------------------|
F|------------------------------------------------------------------|
C|------------------------------------------------------------------|
G|-8-8-8-8-8-8-8-8-8-8-8-8-8-8-8-8-8-8-8-8-8-8-8-8-8-8-8-8-8-8-8-8--|
C|-8-8-8-8-8-8-8-8-8-8-8-8-8-8-8-8-8-8-8-8-8-8-8-8-8-8-8-8-8-8-8-8--|
   . . . . . . . . . . . . . . . . . . . . . . . . . . . . . . . .  

D|------------------------------------------------------------------|
A|------------------------------------------------------------------|
F|------------------------------------------------------------------|
C|------------------------------------------------------------------|
G|-5-5-5-5-5-5-5-5-5-5-5-5-5-5-5-5-10101010101010101010101010101010-|
C|-5-5-5-5-5-5-5-5-5-5-5-5-5-5-5-5-10101010101010101010101010101010-|
   . . . . . . . . . . . . . . . . . . . . . . . . . . . . . . . .  

D|------------------------------------------------------------------|
A|------------------------------------------------------------------|
F|------------------------------------------------------------------|
C|-8---8---8---8---8---8---8---8---8---8---8---8---8----------------|
G|-8---8---8---8---8---8---8---8---8---8---8---8---8---8-8-8-8-8-8--|
C|-8---8---8---8---8---8---8---8---8---8---8---8---8---8-8-8-8-8-8--|
                                                       . . . . . .
D|------------------------------------------------------------------|
A|------------------------------------------------------------------|
F|------------------------------------------------------------------|
C|-5-----------------------------------------------10---------------|
G|-5---5---5---5---5---5---5---5---10--10--10--10--10---------------|
C|-5---5---5---5---5---5---5---5---10--10--10--10--10---------------|
       .   .   .   .   .   .   .   .   .   .   .         





Chorus:
"If you wanna be like me..."
D|------------------------------------------------------------------|
A|------------------------------------------------------------------|
F|------------------------------------------------------------------|
C|-0---0---0---0---0---0---0---0---0---0---0---0---0---0---0---0----|
G|-0---0---0---0---0---0---0---0---0---0---0---0---0---0---0---0----|
C|-0---0---0---0---0---0---0---0---0---0---0---0---0---0---0---0----|

D|------------------------------------------------------------------|
A|------------------------------------------------------------------|
F|------------------------------------------------------------------|
C|-3---3---3---3---3---3---3---3---3---3---3---3---3---3---3---3----|
G|-3---3---3---3---3---3---3---3---3---3---3---3---3---3---3---3----|
C|-3---3---3---3---3---3---3---3---3---3---3---3---3---3---3---3----|

D|------------------------------------------------------------------|
A|------------------------------------------------------------------|
F|------------------------------------------------------------------|
C|-8---8---8---8---8---8---8---8---8---8---8---8---8---8---8---8----|
G|-8---8---8---8---8---8---8---8---8---8---8---8---8---8---8---8----|
C|-8---8---8---8---8---8---8---8---8---8---8---8---8---8---8---8----|

D|------------------------------------------------------------------|
A|------------------------------------------------------------------|
F|------------------------------------------------------------------|
C|-8---8-------8---8-------8---8-------8---8-------8---8---8---8----|
G|-8---8-------8---8-------8---8-------8---8-------8---8---8---8----|
C|-8---8-------8---8-------8---8-------8---8-------8---8---8---8----|

"I'm so scene..."
D|------------------------------------------------------------------|
A|------------------------------------------------------------------|
F|------------------------------------------------------------------|
C|-0---0---0---0---0---0---0---0---0---0---0---0---0---0---0---0----|
G|-0---0---0---0---0---0---0---0---0---0---0---0---0---0---0---0----|
C|-0---0---0---0---0---0---0---0---0---0---0---0---0---0---0---0----|

D|------------------------------------------------------------------|
A|------------------------------------------------------------------|
F|------------------------------------------------------------------|
C|-3---3---3---3---3---3---3---3---3---3---3---3---3---3---3---3----|
G|-3---3---3---3---3---3---3---3---3---3---3---3---3---3---3---3----|
C|-3---3---3---3---3---3---3---3---3---3---3---3---3---3---3---3----|

D|------------------------------------------------------------------|
A|------------------------------------------------------------------|
F|------------------------------------------------------------------|
C|-8---8---8---8---8---8---8---8---8---8---8---8---8---8---8---8----|
G|-8---8---8---8---8---8---8---8---8---8---8---8---8---8---8---8----|
C|-8---8---8---8---8---8---8---8---8---8---8---8---8---8---8---8----|

D|------------------------------------------------------------------|
A|------------------------------------------------------------------|
F|------------------------------------------------------------------|
C|-8---8-------8---8-------8---8-------8---8-------8---8---8---8----|
G|-8---8-------8---8-------8---8-------8---8-------8---8---8---8----|
C|-8---8-------8---8-------8---8-------8---8-------8---8---8---8----|





Post Chorus (intro breakdown)
D|-------------------------------------------------------------------|
A|-------------------------------------------------------------------|
F|-------------------------------------------------------------------|
C|-------------------------------------------------------------------|
G|-0-0-0-0-0-------0-0-0-0-0-----------0-0---0-0---0-0-0-0-0---------|
C|-0-0-0-0-0-------0-0-0-0-0-----------0-0---0-0---0-0-0-0-0---------| x2
   . . . . .       . . . . .           . .   . .   . . . . .

D|-------------------------------------------------------------------|
A|-------------------------------------------------------------------|
F|-------------------------------------------------------------------|
C|---------*5--------------------------------------------------------|
G|-0-0-0-0---------0-0-0-0-*5----------0-0---0-0---0-0-0-0-----------|
C|-0-0-0-0---------0-0-0-0-------------0-0---0-0---0-0-0-0-----------|
   . . . .         . . . .             . .   . .   . . . . 

D|-------------------------------------------------------------------|
A|-------------------------------------------------------------------|
F|-------------------------------------------------------------------|
C|---------------------------------------------------------*5--------|
G|-0-0-0-0-0-------0-0-0-0-0-----------0-0---0-0---0-0-0-0-*5--------|
C|-0-0-0-0-0-------0-0-0-0-0-----------0-0---0-0---0-0-0-0-----------|
   . . . . .       . . . . .           . .   . .   . . . .  




                                                           some sort of harmonic sweep here idk what. i couldn't duplicate it
D|---------------------------------------------------------*12-------|
A|----------------------------------------------------------*12------|
F|-----------------------------------------------------------*12-----|
C|-0~---------------------------------------------------------*12----|
G|-0~----------------------------------------------------------*12---|
C|-0~-----------------------------------------------------------*12--|
   





Verse 2
"This is the part where you start climbing heads..."
D|-------------------------------------------------------------------|
A|-------------------------------------------------------------------|
F|-------------------------------------------------------------------|
C|-------------------------------------------------------------------|
G|-0-0-0-0-0-----------0-0---0-0---0-0----------------0-0-0---0-0-0--|
C|-0-0-0-0-0-----------0-0---0-0---0-0----------------0-0-0---0-0-0--| 
   . . . . .           . .   . .   . .                . . .   . . .

D|-------------------------------------------------------------------|
A|-------------------------------------------------6--------6--------|
F|-------------------------------------------------9--------9--------|
C|-------------------------------------------------------------------|
G|-0-0-0---0-0-0-----------------------0-0---0-0--------0------------|
C|-0-0-0---0-0-0-----------------------0-0---0-0--------0------------| 
   . . .   . . .                       . .   . .        .

"You've probably heard this chord before"
D|------------------------------------8------------------------------|
A|----------------------------6-----------6--------6-----------------|
F|-----------------------9--------9-----------9----------------------|
G|-0-----0-----0--------------------------------------0--------------|
C|-0-----0-----0--------------------------------------0--------------| 
   .     .     .                                      .

D|------------------------------------8------------------------------|
A|----------------------------6-----------6--------6-----------------|
F|-----------------------9--------9-----------9----------------------|
G|-0-----0-----0--------------------------------------0-0-0-0---0-0--|
C|-0-----0-----0--------------------------------------0-0-0-0---0-0--| 
   .     .     .                                      . . . .   . .

"Deeper and deeper..."
D|-------------------------------------------------------------------|
A|-------------------------------------------------------------------|
F|-------------------------------------------------------------------|
C|-------------------------------------------------------------------|
G|-0-0-0-0-0-----------0-------0-------0---0-------------------------|
C|-1-1-1-1-1-----------1-------1-------1---1-------------------------| 
   . . . . .           .       .       .   .                

D|-------------------------------------------------------------------|
A|-------------------------------------------------------------------|
F|-------------------------------------------------------------------|
C|-------------------------------------------------------------------|
G|-0-0-0-0-0-----------0-------0-------0---0-------------------------|
C|-1-1-1-1-1-----------1-------1-------1---1-------------------------| 
   . . . . .           .       .       .   .                


D|------------------------------------8------------------------------|
A|----------------------------6-----------6--------6-----------------|
F|-----------------------9--------9-----------9----------------------|
G|-0-----0-----0--------------------------------------0--------------|
C|-0-----0-----0--------------------------------------0--------------| 
   .     .     .                                      .

D|------------------------------------8------------------------------|
A|----------------------------6-----------6--------6-----------------|
F|-----------------------9--------9-----------9----------------------|
G|-0-----0-----0--------------------------------------0-0-0-0---0-0--|
C|-0-----0-----0--------------------------------------0-0-0-0---0-0--| 
   .     .     .                                      . . . .   . .





Chorus:
"If you wanna be like me..."
D|------------------------------------------------------------------|
A|------------------------------------------------------------------|
F|------------------------------------------------------------------|
C|-0---0---0---0---0---0---0---0---0---0---0---0---0---0---0---0----|
G|-0---0---0---0---0---0---0---0---0---0---0---0---0---0---0---0----|
C|-0---0---0---0---0---0---0---0---0---0---0---0---0---0---0---0----|

D|------------------------------------------------------------------|
A|------------------------------------------------------------------|
F|------------------------------------------------------------------|
C|-3---3---3---3---3---3---3---3---3---3---3---3---3---3---3---3----|
G|-3---3---3---3---3---3---3---3---3---3---3---3---3---3---3---3----|
C|-3---3---3---3---3---3---3---3---3---3---3---3---3---3---3---3----|

D|------------------------------------------------------------------|
A|------------------------------------------------------------------|
F|------------------------------------------------------------------|
C|-8---8---8---8---8---8---8---8---8---8---8---8---8---8---8---8----|
G|-8---8---8---8---8---8---8---8---8---8---8---8---8---8---8---8----|
C|-8---8---8---8---8---8---8---8---8---8---8---8---8---8---8---8----|

D|------------------------------------------------------------------|
A|------------------------------------------------------------------|
F|------------------------------------------------------------------|
C|-8---8-------8---8-------8---8-------8---8-------8---8---8---8----|
G|-8---8-------8---8-------8---8-------8---8-------8---8---8---8----|
C|-8---8-------8---8-------8---8-------8---8-------8---8---8---8----|

"I'm so scene..."
D|------------------------------------------------------------------|
A|------------------------------------------------------------------|
F|------------------------------------------------------------------|
C|-0---0---0---0---0---0---0---0---0---0---0---0---0---0---0---0----|
G|-0---0---0---0---0---0---0---0---0---0---0---0---0---0---0---0----|
C|-0---0---0---0---0---0---0---0---0---0---0---0---0---0---0---0----|

D|------------------------------------------------------------------|
A|------------------------------------------------------------------|
F|------------------------------------------------------------------|
C|-3---3---3---3---3---3---3---3---3---3---3---3---3---3---3---3----|
G|-3---3---3---3---3---3---3---3---3---3---3---3---3---3---3---3----|
C|-3---3---3---3---3---3---3---3---3---3---3---3---3---3---3---3----|

D|------------------------------------------------------------------|
A|------------------------------------------------------------------|
F|------------------------------------------------------------------|
C|-8---8---8---8---8---8---8---8---8---8---8---8---8---8---8---8----|
G|-8---8---8---8---8---8---8---8---8---8---8---8---8---8---8---8----|
C|-8---8---8---8---8---8---8---8---8---8---8---8---8---8---8---8----|

D|------------------------------------------------------------------|
A|------------------------------------------------------------------|
F|------------------------------------------------------------------|
C|-8---8-------8---8-------8---8-------8---8-------8---8---8---8----|
G|-8---8-------8---8-------8---8-------8---8-------8---8---8---8----|
C|-8---8-------8---8-------8---8-------8---8-------8---8---8---8----|



D|---|
A|---|
F|---|
C|-0-|
G|-0-|
C|-0-|



Outro Breakdown
D|------------------------------------------------------------|
A|------------------------------------------------------------|
F|------------------------------------------------------------|
C|------------------------------------------------------------|
G|-0---0-0-0-0-0-------0-0---0-0--------------0---0-0---0-0---|
C|-0---0-0-0-0-0-------0-0---0-0--------------0---0-0---0-0---|--|
   .   . . . . .       . .   . .              .   . .   . .      | 4x
D|------------------------------------------------------------|--|
A|------------------------------------------------------------|
F|------------------------------------------------------------|
C|------------------------------------------------------------|
G|-0---0-0-0-0-0-0-----0-0---0-0--------------0000----0000----|
C|-0---0-0-0-0-0-0-----0-0---0-0--------------0000----0000----|
   .   . . . . . .     . .   . .              ....    ....


"Slow it down..."
D|------------------------------------------------------------|
A|------------------------------------------------------------|
F|------------------------------------------------------------|
C|------------------------------------------------------------|
G|-0-0-0-----0-------0-0-----0-0-----0----0-0-----0-0-0-0-0-0-|
C|-0-0-0-----0-------0-0-----0-0-----0----0-1-----1-1-1-1-1-1-|
   . . .     .       . .     . .     .    . .     . . .   . .

D|--------------------------------------------------------------|
A|--------------------------------------------------------------|
F|--------------------------------------------------------------|
C|--------------------------------------------------------------|
G|-0-0-0---0--------(xxxx-x)-0-0-0---0-0-0---0------0---0-0-0---|
C|-1-1-1---1--------(xxxx-x)-1-1-1---1-1-1---1------1---1-1-1---|it basically repeats this
   . . .   .                 . . .   . . .   .      .   . . . slower and slower each time
                                                                except for the mutes







************************************

| *   harmonic
| .   palm mute note

************************************
Добавлено: 11.06.2016
Другие материалы по этой песне:
  • Аккорды и текст

Страница создана 11.06.2016
http://primanota.ru/jarrod-alonge/im-so-scene-chords.htm
Привет, Гость.
Предлагаем пройти революционный курс по гитаре.
Подарок от PrimaNota.Ru, забирай!