PrimaNota.ru - самый крупный в мире бесплатный архив песенных текстов, аккордов, табулатур и нот


Jarris - Facade - таба, видео

Регистрация Запомнить меня
Войти через:  Facebook Google Twitter Vk Yandex Mail.ru

Jarris - Facade - таба, видео

Печатать
Просмотров: 128
Tabbed by: Patrick Mabry
Tuning:Eadgbe
bass intro:
G|---------------------------------------------------------------------|
D|---------------------------------------------------------------------|
A|-4-4-4-4-4-4-4--4-4-4-4-4-4-0-0-0-0-0-0-0-2-2-2-2-2-2-2--------------|
E|---------------------------------------------------------------------|

Intro: play as many as there are I don't wanna count. Behind these notes the main chords 
being played.
e|---------------------------------------------------------------------|
B|---------------------------------------------------------------------|
G|---------------------------------------------------------------------|
D|---------------------------------------------------------------------|
A|-4-4-4-4-4-0-4-4-4-0-7-7-7-7-7-0-2-2-2-2-2-2-------------------------|
E|---------------------------------------------------------------------|
Chorus and main chords
e|---------------------------------------------------------------------|
B|---------------------------------------------------------------------|
G|---6---9-------------------------------------------------------------|
D|---6-7-9-9-----------------------------------------------------------|
A|---4-7-7-9-----------------------------------------------------------|
E|-----5---7-----------------------------------------------------------|
Verse:palm muted
e|---------------------------------------------------------------------|
B|---------------------------------------------------------------------|
G|-6-6-6-6-6-6-6--6-6-6-6-6-6-2-2-2-2-2-2-2-4-4-4-4-4-4-4--------------|
D|-6-6-6-6-6-6-6--6-6-6-6-6-6-2-2-2-2-2-2-2-4-4-4-4-4-4-4--------------|
A|-4-4-4-4-4-4-4--4-4-4-4-4-4-0-0-0-0-0-0-0-2-2-2-2-2-2-2--------------|
E|---------------------------------------------------------------------|

Sorry no bridge

band website WWW.jarrisrock.com
Добавлено: 19.03.2012
Другие материалы по этой песне:
  • Аккорды и текст

Страница создана 19.03.2012
http://primanota.ru/jarris/facade-chords.htm
Привет, Гость.
Предлагаем пройти революционный курс по гитаре.
Подарок от PrimaNota.Ru, забирай!