PrimaNota.ru - самый крупный в мире бесплатный архив песенных текстов, аккордов, табулатур и нот


Jaromir Nohavica - Ostravian Pie - таба, видео

Регистрация Запомнить меня
Войти через:  Facebook Google Twitter Vk Yandex Mail.ru

Jaromir Nohavica - Ostravian Pie - таба, видео

Печатать
Просмотров: 36
-------------------------------------------------------------------------------
                             OSTRAVIAN PIE - Jaromír Nohavica
-------------------------------------------------------------------------------
Tabbed by:blueterricz
E-mail:PanTepper@seznam.cz


    C              Am                  Em          G

e|-------0-------|-----0-------------|---------0-|---------0-|-------------------------|
B|-----3-1-1---1-|-------1---3---1---|-------0---|-------0---|-------------------------|
G|---0-------0---|---------0---0-----|-----0-----|-----0-----|-------------------------|
D|---------------|-----------------2-|---2-------|---0-------|-------------------------|
A|-3-------------|-0-----------------|-----------|-----------|-------------------------|
E|---------------|-------------------|-0---------|-3---------|-------------------------|

************************************

| /   slide up
| \   slide down
| h   hammer-on
| p   pull-off
| ~   vibrato
| +   harmonic
| x   Mute note
| b   Bend
| pb  Pre-bend
| br  Bend release
| pbr Pre-bend release
| brb Bend release bend

************************************
Добавлено: 20.11.2015
Другие материалы по этой песне:
  • Аккорды и текст

Страница создана 20.11.2015
http://primanota.ru/jaromir-nohavica/ostravian-pie-chords.htm
Привет, Гость.
Предлагаем пройти революционный курс по гитаре.
Подарок от PrimaNota.Ru, забирай!