PrimaNota.ru - самый крупный в мире бесплатный архив песенных текстов, аккордов, табулатур и нот


Jarle Bernhoft - Fly Away Live - таба, видео

Регистрация Запомнить меня
Войти через:  Facebook Google Twitter Vk Yandex Mail.ru

Jarle Bernhoft - Fly Away Live - таба, видео

Печатать
Просмотров: 35
-------------------------------------------------------------------------------
                             Fly Away (Live) - Jarle Bernoft
-------------------------------------------------------------------------------


Tuning: Standard

Intro

e|-------11-13--11-13--11-------9-----11--------------------------------------------|
B|----13-----------------13-11-9--9\11--- 11----------------------------------------|
G|----------------------------------------11----------------------------------------|
D|------------------------------------------13--------------------------------------|
A|----------------------------------------------------------------------------------|
E|----------------------------------------------------------------------------------|


************************************

| /   slide up
| \   slide down
| h   hammer-on
| p   pull-off
| ~   vibrato
| +   harmonic
| x   Mute note
| b   Bend
| pb  Pre-bend
| br  Bend release
| pbr Pre-bend release
| brb Bend release bend

************************************
Добавлено: 19.12.2015
Вам также может быть интересно:
Другие материалы по этой песне:
  • Аккорды и текст

Страница создана 19.12.2015
http://primanota.ru/jarle-bernhoft/fly-away-live-chords.htm
Привет, Гость.
Предлагаем пройти революционный курс по гитаре.
Подарок от PrimaNota.Ru, забирай!