PrimaNota.ru - самый крупный в мире бесплатный архив песенных текстов, аккордов, табулатур и нот


Jarabe De Palo - El Lado Oscuro - таба, видео

Регистрация Запомнить меня
Войти через:  Facebook Google Twitter Vk Yandex Mail.ru

Jarabe De Palo - El Lado Oscuro - таба, видео

Печатать
Просмотров: 299
Jarabe de palo 
El lado oscuro intro 

----------------|----------------|----------------|----------------|
----------------|----------------|----------------|----------------|
----------------|----------------|----------------|----------------|
----------------|---5-3----------|-5-3------------|----------------|
-0-3-0-6-3------|-0----6-3-------|----6-3-0-------|--0-6-----------|
----------------|----------------|----------------|-4--------------|


 ----------------|----------------|----------------|----------------|
 ----------------|----------------|----------------|----------------|
 ----------------|----------------|----------------|----------------|
 ----------------|----------------|----------------|----------------|
 -0-3-6-3--------|----------------|----------------|----------------|
 ----------------|----------------|----------------|----------------|
Добавлено: 06.04.2012
Другие материалы по этой песне:

Страница создана 26.02.2012
http://primanota.ru/jarabe-de-palo/el-lado-oscuro-chords.htm
Привет, Гость.
Предлагаем пройти революционный курс по гитаре.
Подарок от PrimaNota.Ru, забирай!