PrimaNota.ru - самый крупный в мире бесплатный архив песенных текстов, аккордов, табулатур и нот


Jarabe De Palo - Bailar - аккорды и текст, видео

Регистрация Запомнить меня
Войти через:  Facebook Google Twitter Vk Yandex Mail.ru

Jarabe De Palo - Bailar - аккорды и текст, видео

Печатать
Просмотров: 193
Bailar
Jarabe De Palo
Song: "Bailar"
Artist: Jarabe de Palo


Transcriber:
Jon Alba
vyper29@yahoo.com

I tabbed out the chords you need for this song and I placed a chord/lyric guideline at
end.  Si alguien necesita la version en espanol, pues mandame un email, y te la doy.

This song is played with a capo bar on the second fret, and thus all fingering positions
relative to the capo.  Have fun, and if you have questions go ahead and email me.


Intro and Verse:

   G		  Cadd9	  G7add2  Cadd9  G
e|--3-3-3-3----3-3-3-3-----3-3----3-3----3-3-3-3----|
B|--3-3-3-3----3-3-3-3-----3-3----3-3----3-3-3-3----|
G|--0-0-0-0----0-0-0-0-----2-2----0-0----0-0-0-0----|
D|--0-0-0-0----2-2-2-2-----3-3----2-2----0-0-0-0----|
A|--2-2-2-2----3-3-3-3-----x-x----3-3----2-2-2-2----|
E|--3-3-3-3----x-x-x-x-----x-x----x-x----3-3-3-3----|

 Bridge and Chorus:

  Em7		  G7add2  Cadd9  Em7
e|--3-3-3-3----3-3----3-3----3--3--3-3--|
B|--3-3-3-3----3-3----3-3----3--3--3-3--|
G|--0-0-0-0----2-2----0-0----0--0--0-0--|
D|--2-2-2-2----3-3----2-2----0--0--0-0--|
A|--2-2-2-2----x-x----3-3----2--2--2-2--|
E|--0-0-0-0----x-x----x-x----3--3--3-3--|

The bridge/chorus repeats, but on the last time through, end with this chord and arpeggio:

    Dadd9/6
e|--0-0-----0-----0-----0--------0---|
B|--3-3-----------------------3------|
G|--2-2--------2-----2-----2---------|
D|--0-0------------------------------|
A|--x-x------------------------------|
E|--2-2*-----------------------------|
			*note: that 2nd fret F# on the E string is done with the thumb.

End chorus:
The end chorus has a key change and it took me a little while to figure out the
tabliature.  What I have here best simulates the guitar AND the bass/keyboard in the
 In
words, it's not exactly what the guitar plays in the recording; it's a little more , but
way if you're playing the song solo it will sound more complete.  The capo is still
the second fret, and we've switched to the key of A (which of course in the song would
be the key of B due to the capo).

    A		    A6	  A?(C#)
e|--0-0-0-0----0-0-0-0-----0-0----|
B|--5-5-5-5----5-5-5-5-----0-0----|
G|--6-6-6-6----6-6-6-6-----6-6----|
D|--7-7-7-7----7-7-7-7-----7-7----|
A|--0-0-0-0----0-0-0-0-----4-4----|
E|--x-x-x-x----7-7-7-7**---x-x----|
			**note: that 7th fret B on the E string is also done with the thumb.
That is, unless
have a mutated and unnecessarily large pinky.


When playing the song acoustically, I think it sounds good if you end it on this chord:

   D6     /9
e|--0-0----|
B|--0-0----|
G|--6-6----|
D|--7-7----|
A|--5-5----|
E|--x-x----|


So, in case this helps, here's a chord/lyric outline for how the song goes:

Verse:
G		  Cadd9
Bailar cuando todo esta mal

	 G7add2		Cadd9	  G
cuando quiero estar ahi pero no puedo

G		  Cadd9
Bailar cuando todo sigue igual
       G7add2	Cadd9          G
cuando busco una razon y no la encuentro


Bridge/Chorus:
Em7		  G7add2   Cadd9
Bailar cuando todo esta mal

Em7           G7add2     Cadd9
Bailar cuando todo sigue igual

Em7        G7add2		Cadd9			 Dadd9/6
Bailar...al compás de la cancion que mas me gusta

Key Change/Chorus Ending:

A
cuando todo esta mal, cuando todo sigue igual

	A6
cuando todo lo que vivo, deja de tener sentido

     A?C#				A
y yo quiero estar alli pero no puedo

A
cuando todo me va mal, cuando todo me da igual

	    A6
cuando en todo lo que creo, se convierte en un reflejo

        A?C#			   Dm7add9/6
y no me gusta lo que veo en el espejo.
Добавлено: 19.06.2012
Другие материалы по этой песне:
  • Аккорды и текст

Страница создана 19.06.2012
http://primanota.ru/jarabe-de-palo/bailar-chords.htm
Привет, Гость.
Предлагаем пройти революционный курс по гитаре.
Подарок от PrimaNota.Ru, забирай!