PrimaNota.ru - самый крупный в мире бесплатный архив песенных текстов, аккордов, табулатур и нот


Jape - At The Heart Of All Of This Strangeness - таба, видео

Регистрация Запомнить меня
Войти через:  Facebook Google Twitter Vk Yandex Mail.ru

Jape - At The Heart Of All Of This Strangeness - таба, видео

Печатать
Просмотров: 123
-------------------------------------------------------------------------------
                At the heart of all of this Strangeness - Jape
-------------------------------------------------------------------------------
Tabbed by: zander32
E-mail:

Tuning: Standard - Capo on 3rd Fret

Most of the song is in pretty much Bm bar chord.

e|------------------------------------------------------------------------|
B|-------3-----3---3-----3-----3---------3-----3---------3----------------|
G|-----4-4---4-4---4---4-4---4-4-------4-4---4-4-------4-4---------------4|
D|---------------------------------4---------------4---------------------4|
A|---2-----2-----0---------------0---------------0-----------0---0---0-2--|
E|-------------------3-----3---------3-----3---------2-----2---2---2------|

e|-------------------------------------------------------------------------|
B|-----3---3-----3-----3---------3-----3-------0---0---0---0-----3---------|
G|---4-4---4---4-4---4-4-------4-4---4-4-------0---0---0---0---4-4---------|
D|-------------------------4---------------4-------------------------------|
A|-2-----0---------------0---------------0---5---4---0---4---2-------------|
E|-----------3-----3---------3-----3---------------------------------------|

e|--------------------------------------------------------------------------|
B|-----3---3-----3-----3---------3-----3-----3------------------------------|
G|---4-4---4---4-4---4-4-------4-4---4-4-----4------------------------------|
D|-------------------------4---------------4--------------------------------|
A|-2-----0---------------0---------------0---2------------------------------|
E|-----------3-----3---------3-----3----------------------------------------|

e|------------------------------------------------------------------------------|
B|-----3-----3---3-----3-----3---------3-----3-------8-8---8-8---0---7-7---7-7--|
G|---4-4---4-4---4---4-4---4-4-------4-4---4-4-------7-7---7-7---0---7-7---7-7--|
D|-------------------------------4---------------4------------------------------|
A|-2-----2-----0---------------0---------------0---7-----7-----0----------------|
E|-----------------3-----3---------3-----3-------------------------7-----7------|

e|-----------------------------------------------------------------------------|
B|---0---2-2---2-2---0---3-3---3-3---3---8-8---8-8---0---7-7---7-7---0---2-2---|
G|---0---2-2---2-2---0---4-4---4-4---4---7-7---7-7---0---7-7---7-7---0---2-2---|
D|-----------------------------------------------------------------------------|
A|-0---0-----0-----0-------------------7-----7-----0---------------0---0-------|
E|---------------------3-----3-----3-------------------7-----7-----------------|

e|--------------------------------------------------------------------------------------------------|
B|---2-2---0-----3-----3---3-----3-----3---3-----3-----3---3-----3-----3---------3-----3---------3--|
G|---2-2---0---4-4---4-4---4---4-4---4-4---4---4-4---4-4---4---4-4---4-4-------4-4---4-4-------4-4--|
D|-------------------------------------------------------------------------4---------------4--------|
A|-0-----0-----------------------------------2-----2-----0---------------0---------------0----------|
E|-----------3-----3-----3---3-----3-----3-------------------3-----3---------3-----3---------2------|

e|------------------|
B|-----3---3-----3--|
G|---4-4---4---4-4--|
D|------------------|
A|-----------2------|
E|-2-----2----------|

That is basically the entire song with slight adjustments based on the chorus and stuff. Looking at the video
and playing along as he sings helps a lot. Here is the link
https://www.youtube.com/watch?v=R3joZkzfgus

There are some things that jape adds to his version. You can do this with or without.

e|-------------------------------------------------------------------------------------------------|
B|-------3-----3---3-----3-----3---------3-----3---------3-----3---3-----3----------------3-----3--|
G|-----4-4---4-4---4---4-4---4-4-------4-4---4-4-------4-4---4-4---4---4-4--------------4-4---4-4--|
D|---------------------------------4---------------4-------------------------4--2--0---------------|
A|---2-----2-----0---------------0---------------0-------------------------------------------------|
E|-------------------3-----3---------3-----3---------2-----2-----2---2-----2----------3-----3------|

He has a small solo (kind of).

e|--------------------------------------------------------------------------------------|
B|--------------3-----3---0-----0-----0---0---3-3---3-3------3-3---3-3---------3-----3--|
G|------------4-4---4-4---0---4-4---4-4---0---4-4---4-4------4-4---4-4-------4-4---4-4--|
D|-4--2--0------------------------------------------------4--------------4--------------|
A|----------4-----4-----0---2-----2---------------------0--------------0----------------|
E|--------------------------------------0---3-----3---------2----2---------0-----0------|

All in all a pretty simple song after you go through it a couple times. If you have any questions play along 
with the video and in slow motion by clicking settings, speed, .5
I'd be happy to answer any questions.
************************************

| /   slide up
| \   slide down
| h   hammer-on
| p   pull-off
| ~   vibrato
| +   harmonic
| x   Mute note
| b   Bend
| pb  Pre-bend
| br  Bend release
| pbr Pre-bend release
| brb Bend release bend

************************************
Добавлено: 25.07.2015
Другие материалы по этой песне:
  • Аккорды и текст

Страница создана 25.07.2015
http://primanota.ru/jape/at-heart-of-all-of-this-strangeness-chords.htm
Привет, Гость.
Предлагаем пройти революционный курс по гитаре.
Подарок от PrimaNota.Ru, забирай!