PrimaNota.ru - самый крупный в мире бесплатный архив песенных текстов, аккордов, табулатур и нот


Japanther - Along In The Basement - таба, видео

Регистрация Запомнить меня
Войти через:  Facebook Google Twitter Vk Yandex Mail.ru

Japanther - Along In The Basement - таба, видео

Печатать
Просмотров: 66
"Alone In the Basement" - Japanther
from Rock 'n' Roll Ice Cream

Tuning: Drop D

Intro chords (strum pattern not shown)

E|---------------|
B|---------------|
G|---------------|
D|--11--9--4--2--|
A|--11--9--4--2--|
D|--11--9--4--2--|

rest of the song (strum pattern not shown)

"  Where you go, I never know…I hope you know that when you go… "

E|-----------------------------------------------------------------|
B|-----------------------------------------------------------------|
G|-----------------------------------------------------------------|
D|-6--------------------------9------------------------------------|
A|-6--------------------------9------------------------------------|
D|-6--------------------------9------------------------------------|

"  I hope you're in tune…     and that you rhyme… "

E|-----------------------------------------------------------------|
B|-----------------------------------------------------------------|
G|-----------------------------------------------------------------|
D|-2--------------------------9------------------------------------|
A|-2--------------------------9------------------------------------|
D|-2--------------------------9------------------------------------|

"  I can't go another night…  when everyone's an endless fight… "

E|-----------------------------------------------------------------|
B|-----------------------------------------------------------------|
G|-----------------------------------------------------------------|
D|-6--------------------------9------------------------------------|
A|-6--------------------------9------------------------------------|
D|-6--------------------------9------------------------------------|

"  Our problems seem…         animal…. "

E|-----------------------------------------------------------------|
B|-----------------------------------------------------------------|
G|-----------------------------------------------------------------|
D|-2--------------------------6------------------------------------|
A|-2--------------------------6------------------------------------|
D|-2--------------------------6------------------------------------|

"  And if you'll wait for me… "
"  I'll give you everything…  "
"  If I could   light my cigarette"
"  But if you'll wait for me"
"  I'll give you what you need"
"  If we can    find the pharmacy"

E|-----------------------------------------------------------------|
B|-----------------------------------------------------------------|
G|-----------------------------------------------------------------|
D|-2-------------9----------2--------------------------------------|
A|-2-------------9----------2--------------------------------------|
D|-2-------------9----------2--------------------------------------|

" She's the one   having fun while I'm.. "

E|-----------------------------------------------------------------|
B|-----------------------------------------------------------------|
G|-----------------------------------------------------------------|
D|-2--------9-----2------9-----------------------------------------|
A|-2--------9-----2------9-----------------------------------------|
D|-2--------9-----2------9-----------------------------------------|

(lyrics aren't lined up here but whatever) :

"  Sitting alone in the basement"
"listening to a mixture"
"trying to get my head straight"
"staring at the fish tank"
"and wishing i was holding you again"

E|-----------------------------------------------------------------|
B|-----------------------------------------------------------------|
G|-----------------------------------------------------------------|
D|-2-------------9----------2--------------------------------------|
A|-2-------------9----------2--------------------------------------|
D|-2-------------9----------2--------------------------------------|
--|
Добавлено: 02.12.2013
Другие материалы по этой песне:
  • Аккорды и текст

Страница создана 04.07.2013
http://primanota.ru/japanther/along-in-the-basement-chords.htm
Привет, Гость.
Предлагаем пройти революционный курс по гитаре.
Подарок от PrimaNota.Ru, забирай!