PrimaNota.ru - самый крупный в мире бесплатный архив песенных текстов, аккордов, табулатур и нот


Japanese Voyeurs - That Love Sound - бас-таба, видео

Регистрация Запомнить меня
Войти через:  Facebook Google Twitter Vk Yandex Mail.ru

Japanese Voyeurs - That Love Sound - бас-таба, видео

Печатать
Просмотров: 76
Уроки эстрадного вокала в Санкт-Петербурге
-----------------------------------------------------------------------------
                             THAT LOVE SOUND - Japanese Voyeurs
-----------------------------------------------------------------------------

Tabbed by: redhedbassist
Email: lara.mcr.white@gmail.com

Tuning: standard

Bass isn't played all the way through but I tabbed what sounds right-ish anyway 
because it sounds even better with bass throughout. Also, 
this is my first tab so be nice to me please!!

Intro and first verse
G|----------------------------------------------------------------|
D|----------------------------------------------------------------| x5
A|2-2-2-2-2-2-2-2/5-5-5-5-5-5-5-5---------------------------------|
E|--------------------------------3-3-3-3-3-3-3-3-2-2-2-2-2-2-2-2-|

G|----------------------------------------------------------------|
D|--------------------------------------------------------0-4-0---|
A|2-2-2-2-2-2-2-2/5-5-5-5-5-5-5-5-------------------------------4-|
E|--------------------------------3-3-3-3-3-3-3-3-2-2-2-2---------|

Chorus
G|------------------------------------------------------------------------|
D|--------------------------------------------9------------------11-------|
A|2-2-2-2-2-2-2-2/5-5-5-5-5-5-5-5/10-10-10-10---10-10-10-9-9-9-9----9-9-9\|
E|------------------------------------------------------------------------|

G|----------------------------------------------------------------|
D|----------------------------------------------------------------|
A|2-2-2-2-2-2-2-2/5-5-5-5-5-5-5-5---------------------------------|
E|--------------------------------3-3-3-3-3-3-3-3-2-2-2-2-2-2-2-2-|

G|----------------------------------------------------------------|
D|----------------------------------------------------------------|
A|2---------------5-----------------------------------------------|
E|--------------------------------3---------------2---------------|

G|----------------------------------------------------------------|
D|----------------------------------------------------------------|
A|2-2-2-2-2-2-2-2/5-5-5-5-5-5-5-5---------------------------------|
E|--------------------------------3-3-3-3-3-3-3-3-2-2-2-2-2-2-2-2-|

Verse
G|----------------------------------------------------------------|
D|----------------------------------------------------------------| x2
A|2-2-2-2-2-2-2-2/5-5-5-5-5-5-5-5---------------------------------|
E|--------------------------------3-3-3-3-3-3-3-3-2-2-2-2-2-2-2-2-|

G|----------------------------------------------------------------|
D|----------------------------------------------------------------|
A|2-2-2-2-2-2-2-2/5-5-5-5-5-5-5-5---------------------------------|
E|--------------------------------3-3-3-3-3-3-3-3-2-2-2-2-2-2-2-2-|

Chorus
G|------------------------------------------------------------------------|
D|--------------------------------------------9------------------11-------|
A|2-2-2-2-2-2-2-2/5-5-5-5-5-5-5-5/10-10-10-10---10-10-10-9-9-9-9----9-9-9\|
E|------------------------------------------------------------------------|

G|----------------------------------------------------------------|
D|----------------------------------------------------------------|
A|2-2-2-2-2-2-2-2/5-5-5-5-5-5-5-5---------------------------------|
E|--------------------------------3-3-3-3-3-3-3-3-2-2-2-2-2-2-2-2-|

G|------------------------------------------------------------------------|
D|--------------------------------------------9------------------11-------|
A|2-2-2-2-2-2-2-2/5-5-5-5-5-5-5-5/10-10-10-10---10-10-10-9-9-9-9----9-9-9\|
E|------------------------------------------------------------------------|

G|----------------------------------------------------------------|
D|--------------------------------------------------------0-4-0---|
A|2-2-2-2-2-2-2-2/5-5-5-5-5-5-5-5-------------------------------4-|
E|--------------------------------3-3-3-3-3-3-3-3-2-2-2-2---------|


Bridge
G|----------------------------------------------------------------|
D|----------------------------------------------------------------| x2
A|2-2-2-2-2-2-2-2-----------------2-2-2-2-2-2-2-2-----------------|
E|-------------- -3-3-3-3-3-3-3-3-----------------3-3-3-3-3-3-3-3-|


Chorus
G|------------------------------------------------------------------------|
D|--------------------------------------------9------------------11-------|
A|2-2-2-2-2-2-2-2/5-5-5-5-5-5-5-5/10-10-10-10---10-10-10-9-9-9-9----9-9-9\|
E|------------------------------------------------------------------------|

G|----------------------------------------------------------------|
D|----------------------------------------------------------------|
A|2-2-2-2-2-2-2-2/5-5-5-5-5-5-5-5---------------------------------|
E|--------------------------------3-3-3-3-3-3-3-3-2-2-2-2-2-2-2-2-|

G|----------------------------------------------------------------|
D|----------------------------------------------------------------|
A|2---------------5-----------------------------------------------|
E|--------------------------------3---------------2---------------|
Добавлено: 25.09.2013
Другие материалы по этой песне:
  • Аккорды и текст

Страница создана 25.09.2013
http://primanota.ru/japanese-voyeurs/that-love-sound-chords.htm
Привет, Гость.
Предлагаем пройти революционный курс по гитаре.
Подарок от PrimaNota.Ru, забирай!