PrimaNota.ru - самый крупный в мире бесплатный архив песенных текстов, аккордов, табулатур и нот


Japanese Cartoon - Gasp - бас-таба, видео

Регистрация Запомнить меня
Войти через:  Facebook Google Twitter Vk Yandex Mail.ru

Japanese Cartoon - Gasp - бас-таба, видео

Печатать
Просмотров: 86
Уроки эстрадного вокала в Санкт-Петербурге
-------------------------------------------------------------------------------
                                                 GASP - Japanese Cartoon
-------------------------------------------------------------------------------
Tabbed by: KGKing13
E-mail: KGaul95@hotmail.com

Tuning: Standard

Every part of the song except the outro
G|----------------------------------------------------------------------|
D|----------------------------------------------------------------------|
A|-5-5-5-5-5-5-5-5-8-8-8-7-7-7-----6-6-6-6-6-6-6-6----------------------|
E|-----------------------------8-8-----------------5-5-5-8-8-8-8-8------|

Outro (Play after the lyric "your happiness is killing me")
G|--------------------------------------------------------------------------|
D|--------------------------------------------------------------------------|
A|-------------------------------------------------------------7-7-8-8-10-10|
E|-10-10-10-10-10-10-10-10-8-8-8-8-5-5-5-5-6-6-6-6-6-6-6-6-5-5--------------|


| /  slide up
| \  slide down
| h  hammer-on
| p  pull-off
| ~  vibrato
| +  harmonic
| x  Mute note
===============================================================================

https://www.facebook.com/pages/Japanese-Cartoon/129489265330
Добавлено: 03.12.2013
Другие материалы по этой песне:
  • Аккорды и текст

Страница создана 03.12.2013
http://primanota.ru/japanese-cartoon/gasp-chords.htm
Привет, Гость.
Предлагаем пройти революционный курс по гитаре.
Подарок от PrimaNota.Ru, забирай!