PrimaNota.ru - самый крупный в мире бесплатный архив песенных текстов, аккордов, табулатур и нот


Japandroids - Sexual Aerosol - таба, видео

Регистрация Запомнить меня
Войти через:  Facebook Google Twitter Vk Yandex Mail.ru

Japandroids - Sexual Aerosol - таба, видео

Печатать
Просмотров: 89
Japandroids-Sexual Aerosol
Key of B major

(0:00-0:03)

e|-14-11--------------------------------------------|
B|--------14--12------------------------------------|
G|------------------14-14-(14)----------------------|
D|--------------------------------------------------|
A|-----------------------------------(2x)-----------|
E|--------------------------------------------------|


(0:03-0:22)
     E         F#     G#m                 E
e|---0---------2-------4------------------0~-------------|
B|---0---------2-------4------------------0~-------------|
G|---1---------3-------4----------(4x)----1~-(let ring)--|
D|---2---------4-------6------------------2~-------------|
A|---2---------4-------6------------------2~-------------|
E|---0---------2-------4------------------0~-------------|

(0:23-1:30)
    E                    F#
e|--0--------------------2--------------------------|
B|--0--------------------2--------------------------|
G|--1--------------------3--------------------------|
D|--2--------------------4--------------------------|
A|--2--------------------4--------------------------|
E|--0--------------------2--------------------------|
   Things are different now, I am different now  


   B       E            B        F#
e|---------0---------------------2------------------|
B|-4-------0------------4--------2------------------|
G|-4-------1------------4--------3------------------|
D|-4-------2------------4--------4------------------|
A|-2-------2------------2--------4------------------|
E|-2-------0------------2--------2------------------|
  You're the same,       New     Faith


(1:31-2:16)
   G#m         F#    E
e|--4---(0)----2-----0------------------------------|
B|--4---(0)----2-----0------------------------------|
G|--4---(0)----3-----1------------------------------|
D|--6----------4-----2------------------------------|
A|--6----------4-----2------------------------------|
E|--4----------2-----0------------------------------|
  Your aerosol,   floated to 

   B      E     F#
e|--------0-----2-----------------------------------|
B|-4------0-----2-----------------------------------|
G|-4------1-----3-----------------------------------|
D|-4------2-----4-----------------------------------|
A|-2------2-----4-----------------------------------|
E|-2------0-----2-----------------------------------|
  me,    on the ether



(2:17-3:01)
    E    C#m    G#m      F#
e|--0-----4------4-------2--------------------------|
B|--0-----5------4-------2--------------------------|
G|--1-----6------4-------3--------------------------|
D|--2-----6------6-------4--------------------------|
A|--2-----4------6-------4--------------------------|
E|--0------------4-------2--------------------------|
   oooooh,            ooohhh,

    B     E     G#m      F#
e|--------0------4-------2--------------------------|
B|--4-----0------4-------2--------------------------|
G|--4-----1------4-------3--------------------------|
D|--4-----2------6-------4--------------------------|
A|--2-----2------6-------4--------------------------|
E|--2-----0------4-------2--------------------------|
   oooohhh


(3:02-3:08)

e|--------------------------------------------------|
B|--------------------------------------------------|
G|--------------------------------------------------|
D|--------------------------------------------------|
A|--------------------------------------------------|
E|---0~---------------------------------------------|


(3:09-3:15)
                                         E
e|-14-11---------------------------------0----------|
B|--------14--12-------------------------0----------|
G|------------------14-14-(14)-----------1----------|
D|-----------------------------(4x)------2----------|
A|---------------------------------------2----------|
E|---------------------------------------0----------|


(3:16-3:59)
     E         F#     G#m                 E
e|---0---------2-------4------------------0~-------------|
B|---0---------2-------4------------------0~-------------|
G|---1---------3-------4----------(4x)----1~-(let ring)--|
D|---2---------4-------6------------------2~-------------|
A|---2---------4-------6------------------2~-------------|
E|---0---------2-------4------------------0~-------------|
Добавлено: 23.11.2013
Другие материалы по этой песне:
  • Аккорды и текст

Страница создана 23.11.2013
http://primanota.ru/japandroids/sexual-aerosol-chords.htm
Привет, Гость.
Предлагаем пройти революционный курс по гитаре.
Подарок от PrimaNota.Ru, забирай!