PrimaNota.ru - самый крупный в мире бесплатный архив песенных текстов, аккордов, табулатур и нот


Janus - Waive - таба, видео

Регистрация Запомнить меня
Войти через:  Facebook Google Twitter Vk Yandex Mail.ru

Janus - Waive - таба, видео

Печатать
Просмотров: 119
Уроки эстрадного вокала в Санкт-Петербурге
Author/Artist: Janus
Title: Waive
Album: Nox Aeris
Transcribed by: redick4ulous

Tuning: Drop C (CGCFAD)

Here is how I think the song is played.  There are a
couple of things I'm not sure about, but I think this 
tab is very close overall.

Link to me playing the song:
http://youtu.be/OkGqYdzDNy4


        Intro
D -------------------|
A -------------------|
F -------------------|
C -10-10--10-10-10---|
G -8--8---8--8--8----|
C -8--8---8--8--8----|

D ------------------------|
A ------------------------|
F ------------------------|
C ------------------------|
G -------3---5------------|
C -0---0---0-----0-1-1-1--|

D -------------------------------|-------------|
A -------------------------------|-------------|  
F -------------------------------|-------------| Play this last part 
C -------------------------------|-------------| only on the 3rd time
G ------5---6----3---5-----------|----1-1-1----|
C -0--3---5----0---0----0-1-1-1--|--0----------|
        Play this 3 times          


                        Verse 1
D ------------------------------------------------------|
A ------------------------------------------------------|
F ------------------------------------------------------|
C ----7~~7~~~----8~~8~~~----7~~7~~----5~~~~~----7~~~~~~-|
G ---8~~8~8~~---5~~5~5~~---8~~8~8~---3~~~~~~---5~~~~~~~-|
C -0~~~~~~~~~-5~~~~~~~~~-0~~~~~~~~-3~~~~~~~~-5~~~~~~~~~-|
                                                  
D ------------------------------------------------------|
A ------------------------------------------------------|
F ------------------------------------------------------|
C -0-0-0---7~~-----8~~8~~~----7~~7~~------5~~~~---7~~~~-|
G -0-0-0--8~8~----5~~5~5~~---8~~8~8~-----3~~~~~--5~~~~~-|
C -0-0-0-0~~~~--5~~~~~~~~~-0~~~~~~~~~--3~~~~~~-5~~~~~~--|
   P P P

                        Pre-Chorus 1
D ------------------------------------------------------|
A ------------------------------------------------------|
F ------------------------------------------------------|
C ---------------3-33-333----5-55-555----8-88-888-------|
G ---5-55-555-------------------------------------------|
C ---0-00-000----3-33-333----5-55-555----8-88-888-------|

D ------------------------------------------------------|
A ------------------------------------------------------|
F ---------------------------------------5-55-555-------|
C ---------------3-33-333----5-55-555-------------------|
G ---5-55-555----------------------------3-33-333-------|
C ---0-00-000----3-33-333----5-55-555-------------------|

                            Chorus
D ------------------------------------------------------------|
A ------------------------------------------------------------|\
F ------------------------------------------------------------| \
C ------------------------------------------------------------|  \
G -------3---5----------------5---6----3---5--------------5---|   \
C -0---0---0-----0-1-1-1-0--3---5----0---0----0-1-1-1-0-3---5-|    \
                                                                   x2
D ------------------------------------------------------------|    /
A ------------------------------------------------------------|   /
F ----3-3-3-3-3-3-3-3-3-5-5-5---------------------------------|  /
C ----3-3-3-3-3-3-3-3-3-5-5-5---5-5-5-5-5-5-5-5-5-5-5-5-5-3---| /
G ----1-1-1-1-1-1-1-1-1-3-3-3---5-5-5-5-5-5-5-5-5-5-5-5-5-3---|/
C ------------------------------5-5-5-5-5-5-5-5-5-5-5-5-5-3---|


                        Verse 2
D ------------------------------------------------------|
A ------------------------------------------------------|
F ------------------------------------------------------|
C ----7~~7~~~----8~~8~~~----7~~7~~----5~~~~~----7~~~~~~-|
G ---8~~8~8~~---5~~5~5~~---8~~8~8~---3~~~~~~---5~~~~~~~-|
C -0~~~~~~~~~-5~~~~~~~~~-0~~~~~~~~-3~~~~~~~~-5~~~~~~~~~-|
                                                  
D ------------------------------------------------------|
A ------------------------------------------------------|
F ------------------------------------------------------|
C -0-0-0---7~~-----8~~8~~~----7~~7~~------5~~~~---7~~~~-|
G -0-0-0--8~8~----5~~5~5~~---8~~8~8~-----3~~~~~--5~~~~~-|
C -0-0-0-0~~~~--5~~~~~~~~~-0~~~~~~~~~--3~~~~~~-5~~~~~~--|
   P P P

                        Pre-Chorus 2
D ------------------------------------------------------|
A ------------------------------------------------------|
F ------------------------------------------------------|
C ---------------3-33-333----5-55-555----8-88-888-------|
G ---5-55-555-------------------------------------------|
C ---0-00-000----3-33-333----5-55-555----8-88-888-------|

D ------------------------------------------------------|
A ------------------------------------------------------|
F ---------------------------------------5-55-555-------|
C ---------------3-33-333----5-55-555-------------------|
G ---5-55-555----------------------------3-33-333-------|
C ---0-00-000----3-33-333----5-55-555-------------------|

                            Chorus 2
D ------------------------------------------------------------|
A ------------------------------------------------------------|\
F ------------------------------------------------------------| \
C ------------------------------------------------------------|  \
G -------3---5----------------5---6----3---5--------------5---|   \
C -0---0---0-----0-1-1-1-0--3---5----0---0----0-1-1-1-0-3---5-|    \
                                                                   x2
D ------------------------------------------------------------|    /
A ------------------------------------------------------------|   /
F ----3-3-3-3-3-3-3-3-3-5-5-5---------------------------------|  /
C ----3-3-3-3-3-3-3-3-3-5-5-5---5-5-5-5-5-5-5-5-5-5-5-5-5-3---| /
G ----1-1-1-1-1-1-1-1-1-3-3-3---5-5-5-5-5-5-5-5-5-5-5-5-5-3---|/
C ------------------------------5-5-5-5-5-5-5-5-5-5-5-5-5-3---|

D ------------------------------------------------------------|
A ------------------------------------------------------------|
F ----3-3-3-3-3-3-3-3-3-5-5-5---------------------------------|
C ----3-3-3-3-3-3-3-3-3-5-5-5---5-5-5-5-5-5-5-5-5-5-5-5-5-3---|
G ----1-1-1-1-1-1-1-1-1-3-3-3---5-5-5-5-5-5-5-5-5-5-5-5-5-3---|
C ------------------------------5-5-5-5-5-5-5-5-5-5-5-5-5-3---|


                            Bridge
D ------------------------|
A ------------------------|
F --10b12-10-7--5---------| This part is the guitar in the
C ------------------------| background with the wah effect
G ------------------------| right as the bridge starts
C ------------------------|

D ------------------------------------------------------------|
A ------------------------------------------------------------|\
F ------------------------------------------------------------| \
C -0---2--2h3----0---2--2h3----3---5--5p3----3---5--5p3-------|  \
G -0---0--0-0----0---0--0-0----3---3--3-3----3---3--3-3-------|   \
C -0---0--0-0----0---0--0-0----3---3--3-3----3---3--3-3-------|    \
                                                                   x2
D ------------------------------------------------------------|    /
A ------------------------------------------------------------|   /
F ------------------------------------------------------------|  /
C -0---2--2h3----0---2--2h3----5---5--5-5----8---8--8-8-------| /
G -0---0--0-0----0---0--0-0----5---5--5-5----8---8--8-8-------|/
C -0---0--0-0----0---0--0-0----5---5--5-5----8---8--8-8-------|


                    Outro (Same as Chorus)
D ------------------------------------------------------------|
A ------------------------------------------------------------|\
F ------------------------------------------------------------| \
C ------------------------------------------------------------|  \
G -------3---5----------------5---6----3---5--------------5---|   \
C -0---0---0-----0-1-1-1-0--3---5----0---0----0-1-1-1-0-3---5-|    \
                                                                   x2
D ------------------------------------------------------------|    /
A ------------------------------------------------------------|   /
F ----3-3-3-3-3-3-3-3-3-5-5-5---------------------------------|  /
C ----3-3-3-3-3-3-3-3-3-5-5-5---5-5-5-5-5-5-5-5-5-5-5-5-5-3---| /
G ----1-1-1-1-1-1-1-1-1-3-3-3---5-5-5-5-5-5-5-5-5-5-5-5-5-3---|/
C ------------------------------5-5-5-5-5-5-5-5-5-5-5-5-5-3---|

D ------------------------------------------------------------|
A ------------------------------------------------------------|
F ----3-3-3-3-3-3-3-3-3-5-5-5---------------------------------|
C ----3-3-3-3-3-3-3-3-3-5-5-5---5-5-5-5-5-5-5-5-5-5-5-5-5-3--0|
G ----1-1-1-1-1-1-1-1-1-3-3-3---5-5-5-5-5-5-5-5-5-5-5-5-5-3--0|
C ------------------------------5-5-5-5-5-5-5-5-5-5-5-5-5-3--0|
Добавлено: 24.08.2013
Вам также может быть интересно:
Другие материалы по этой песне:
  • Аккорды и текст

Страница создана 24.08.2013
http://primanota.ru/janus/waive-chords.htm
Привет, Гость.
Предлагаем пройти революционный курс по гитаре.
Подарок от PrimaNota.Ru, забирай!