PrimaNota.ru - самый крупный в мире бесплатный архив песенных текстов, аккордов, табулатур и нот


Janus - Stranger - таба, видео

Регистрация Запомнить меня
Войти через:  Facebook Google Twitter Vk Yandex Mail.ru

Janus - Stranger - таба, видео

Печатать
Просмотров: 152
Track 1
     E     E  E  Q.     E  E  E     E  E  Q    E  E  E  E   
D||-----|------------------------|-------------------------|
A||-----|------------------------|-------------------------|
F||-----|------------------------|-------------------------|
C||--7--|--L--0--0------7--5--7--|--8--0--0----0--5--0--7--|
G||--7--|--L--0--0------7--5--7--|--8--0--0----0--5--0--7--|
C||--7--|--L--0--0------7--5--7--|--8--0--0----0--5--0--7--|


  E  E  Q.     E  E  E     E  E  Q     E   E   E  E     E  E  Q.     E  E  E   
------------------------|----------------------------|------------------------|
------------------------|----------------------------|------------------------|
------------------------|-------------10--10--10-----|------------------------|
--L--0--0------7--5--7--|--8--0--0-----x---x---x--7--|--L--0--0------7--5--7--|
--L--0--0------7--5--7--|--8--0--0-----8---8---8--7--|--L--0--0------7--5--7--|
--L--0--0------7--5--7--|--8--0--0----------------7--|--L--0--0------7--5--7--|


  E  E  Q    E  E  E  E     E  E  Q.     E  E  E     E  E  Q    E   E  E  E   
-------------------------|------------------------|--------------------------|
-------------------------|------------------------|--------------------------|
-------------------------|------------------------|-----------------------9--|
--8--0--0----0--5--0--7--|--L--0--0------7--5--7--|--0--3--3----3s--5--5--x--|
--8--0--0----0--5--0--7--|--L--0--0------7--5--7--|--0--3--3----3s--5--5--7--|
--8--0--0----0--5--0--7--|--L--0--0------7--5--7--|--0--3--3----3s--5--5-----|


     PM PM PM PM PM PM PM    PM PM PM PM PM       PM  
  E  E  E  E  E  E  E  E     E  E  E  E  E  E  E  E   
--------------------------|--------------------------|
--------------------------|--------------------------|
--L-----------------------|-----------------9--L--9--|
--L-----------------------|-----------------x--L--x--|
--L--7--7--7--7--7--7--7--|--7--7--7--7--7--7--L--7--|
--------------------------|--------------------------|


         PM PM PM PM PM PM    PM PM PM                 
  E   E  E  E  E  E  E  E     E  E  E  E  E  E  E  E   
---------------------------|--------------------------|
---------------------------|--------------------------|
--5h--9--------------------|-----------9--x--7--x--5--|
--x---x--------------------|-----------x--x--x--x--x--|
--7---7--7--7--7--7--7--7--|--7--7--7--7--x--5--x--5--|
---------------------------|--------------------------|


     PM PM PM PM PM PM PM    PM PM PM PM PM           
  E  E  E  E  E  E  E  E     E  E  E  E  E  E  E  E   
--------------------------|--------------------------|
--------------------------|--------------------------|
--5-----------------------|-----------------5--L--5--|
--x-----------------------|-----------------x-----x--|
--3--3--3--3--3--3--3--3--|--3--3--3--3--3--3--L--3--|
--------------------------|--------------------------|


  PM PM PM PM PM PM PM PM                               
  E  E  E  E  E  E  E  E     E   E   E  E  E  E  E  E   
--------------------------|-------------3--L-----------|
--------------------------|----------------------------|
--------------------------|-------------------------9--|
--------------------------|----------------3--2--0--x--|
--3--3--3--3--3--3--3--3--|--3h--5p--3--------------7--|
--------------------------|----------------------------|


     PM PM PM PM PM PM PM    PM PM PM PM PM       PM  
  E  E  E  E  E  E  E  E     E  E  E  E  E  E  E  E   
--------------------------|--------------------------|
--------------------------|--------------------------|
--L-----------------------|-----------------9--L--5--|
--------------------------|-----------------x--L--x--|
--L--7--7--7--7--7--7--7--|--7--7--7--7--7--7--L--7--|
--------------------------|--------------------------|


         PM PM PM PM PM PM    PM PM PM                 
  E   E  E  E  E  E  E  E     E  E  E  E  E  E  E  E   
---------------------------|--------------------------|
---------------------------|--------------------------|
--5h--9--------------------|-----------9--x--7--x--5--|
--x------------------------|-----------x--x--x--x--x--|
--7------7--7--7--7--7--7--|--7--7--7--7--x--5--x--5--|
---------------------------|--------------------------|


     PM PM PM PM PM PM PM    PM PM PM PM PM           
  E  E  E  E  E  E  E  E     E  E  E  E  E  E  E  E   
--------------------------|--------------------------|
--------------------------|--------------------------|
--5-----------------------|-----------------5--L--5--|
--x-----------------------|-----------------x-----x--|
--3--3--3--3--3--3--3--3--|--3--3--3--3--3--3--L--3--|
--------------------------|--------------------------|


  PM PM PM PM PM PM PM PM                                
  E  E  E  E  E  E  E  E     E   E   E  E  E  E   E  E   
--------------------------|-----------------------------|
--------------------------|-----------------------------|
--------------------------|-------------0------------5--|
--------------------------|----------------3--2p--0--5--|
--3--3--3--3--3--3--3--3--|--3h--5p--3---------------3--|
--------------------------|--------------------------3--|


  E  E  Q    E  E  E  E     E  E  E  E  E  E  E  E     E  E  Q    E  E  E  E   
--L----------3--3--3--3--|--3--3--3--3--3--3--3--3--|-------------x--x--x-----|
--L----------3--3--3--3--|--3--3--3--3--3--3--3--3--|-------------8--8--8--L--|
--L--5--5----5--5--5--5--|--5--5--5--5--5--5--5--5--|-------------7--7--7--L--|
--L--5--5----5--5--5--5--|--5--5--5--5--5--5--5--5--|--5--5--5----5--5--5--5--|
--L--3--3----3--3--3--3--|--3--3--3--3--3--3--3--3--|--5--5--5----5--5--5--5--|
-----3--3----3--3--3--3--|--3--3--3--3--3--3--3--3--|--5--5--5----5--5--5--5--|


  E  E  E  E  E  E  E  E     E  E  Q    E  E  E  E     E  E  E  E  E  E  E  E   
-----------L--x--x--x--x--|-----3-------------------|--------------------------|
--L--L--L--L--8--8--8--8--|-----x-------------------|--------------------------|
--L--L--L--L--7--7--7--7--|-----x-------------------|--------------------------|
--5--5--5--5--5--5--5--5--|--2--2--2----2--2--2--2--|--2--2--2--2--2--2--2--2--|
--5--5--5--5--5--5--5--5--|--2--2--2----2--2--2--2--|--2--2--2--2--2--2--2--2--|
--5--5--5--5--5--5--5--5--|--2--2--2----2--2--2--2--|--2--2--2--2--2--2--2--2--|


                                        PM PM PM                              
  E  E  Q    E  E  E  E     E  E  E  E  E  E  E  E     E  E  Q.     E  E  E   
-------------------------|--------------------------|------------------------|
-------------------------|--------------------------|------------------------|
-------------------------|--------------------------|------------------------|
--3--3--3----3--3--3--3--|--3--3--3--3--3--3--3--7--|--L--0--0------7--5--7--|
--3--3--3----3--3--3--3--|--3--3--3--3--3--3--3--7--|--L--0--0------7--5--7--|
--3--3--3----3--3--3--3--|--3--3--3--3--3--3--3--7--|--L--0--0------7--5--7--|


  E  E  Q     E   E   E  E     E  E  Q.     E  E  E   
----------------------------|------------------------|
----------------------------|------------------------|
-------------10--10--10-----|------------------------|
--8--0--0-----x---x---x--7--|--L--0--0------7--5--7--|
--8--0--0-----8---8---8--7--|--L--0--0------7--5--7--|
--8--0--0----------------7--|--L--0--0------7--5--7--|


                             PM PM PM PM PM PM PM PM  
  E  E  Q    E   E  E  E     E  E  E  E  E  E  E  E   
--------------------------|--------------------------|
--------------------------|--------------------------|
-----------------------4--|--------------------------|
--0--3--3----3s--5--5--2--|--2--2--2--2--2--2--2--2--|
--0--3--3----3s--5--5--2--|--2--2--2--2--2--2--2--2--|
--0--3--3----3s--5--5--2--|--2--2--2--2--2--2--2--2--|


  PM PM PM PM PM                    PM PM PM PM PM PM  
  E  E  E  E  E  E  E  E     E   E  E  E  E  E  E  E   
--------------------------|---------------------------|
--------------------------|---------------------------|
-----------------4--L-----|---------------------------|
--2--2--2--2--2--2--L--2--|---------2--2--2--2--2--2--|
--2--2--2--2--2--2--L-----|--3s--7--2--2--2--2--2--2--|
--2--2--2--2--2--2--------|---------2--2--2--2--2--2--|


  PM PM PM                    PM PM PM PM PM PM PM PM  
  E  E  E    Q    E  E  E     E  E  E  E  E  E  E  E   
---------------------------|--------------------------|
---------------------------|--------------------------|
-----------4g5----0--L--5--|--5--5--5--5--5--5--5--5--|
--2--2--2----2----0--L--5--|--5--5--5--5--5--5--5--5--|
--2--2--2----2----0--L--3--|--3--3--3--3--3--3--3--3--|
--2--2--2----2----0--L-----|--------------------------|


  PM PM PM PM PM             PM PM PM PM PM PM PM PM  
  E  E  E  E  E  E  E  E     E  E  E  E  E  E  E  E   
--------------------------|--------------------------|
--------------------------|--------------------------|
--5--5--5--5--5--5--L--5--|--5--5--5--5--5--5--5--5--|
--5--5--5--5--5--5-----5--|--5--5--5--5--5--5--5--5--|
--3--3--3--3--3--3--L--3--|--3--3--3--3--3--3--3--3--|
--------------------------|--------------------------|


                               PM PM PM PM PM PM PM PM  
  E   E   E  E  E  E  E  E     E  E  E  E  E  E  E  E   
----------------------------|--------------------------|
----------------------------|--------------------------|
-------------0--------------|--------------------------|
----------------3--2--0--2--|--2--2--2--2--2--2--2--2--|
--3h--5p--3--------------2--|--2--2--2--2--2--2--2--2--|
-------------------------2--|--2--2--2--2--2--2--2--2--|


  PM PM PM PM PM                  PM PM PM PM PM PM PM  
  E  E  E  E  E  E   E  E      E  E  E  E  E  E  E  E   
----------------------------|--------------------------|
----------------------------|--------------------------|
----------------------------|--------------------------|
--2--2--2--2--2-------------|--L--2--2--2--2--2--2--2--|
--2--2--2--2--2--2p--0--3~--|--L--2--2--2--2--2--2--2--|
--2--2--2--2--2-------------|-----2--2--2--2--2--2--2--|


  PM PM PM                       PM PM PM PM PM PM PM  
  E  E  E  E  E  E   E  E     E  E  E  E  E  E  E  E   
-----------0--L------------|--------------------------|
-----------x--L--3p--0-----|--------------------------|
-----------x--L---------5--|--L--5--5--5--5--5--5--5--|
--2--2--2--2--L---------5--|--L--5--5--5--5--5--5--5--|
--2--2--2--2--L---------3--|--L--3--3--3--3--3--3--3--|
--2--2--2--2---------------|--------------------------|


  PM PM PM PM PM PM                                    
  E  E  E  E  E  E   E  E     E  E  E  E  E  E  E  E   
---------------------------|--------------------------|
---------------------------|--------------------------|
--5--5--5--5--5--5p--4--5--|--L--5--5--4--2--2--2--0--|
--5--5--5--5--5--5---L--5--|--L--5--5--2--2--2--2--2--|
--3--3--3--3--3--3------3--|--L--3--3--2--0--0--0--2--|
---------------------------|--------------0--0--0--2--|


  E  E  E  E  E  E  E  E     E  E  E  E  E  E  E  E   
--------------------------|-----3--3--3--3--3--3--3--|
--------------------------|-----3--3--3--3--3--3--3--|
--L--0--0--0--0--0--0--5--|--L--5--5--5--5--5--5--5--|
--L--2--2--3--3--3--3--5--|--L--5--5--5--5--5--5--5--|
--L--2--2--3--3--3--3--3--|--L--3--3--3--3--3--3--3--|
--L--2--2--3--3--3--3--3--|-----3--3--3--3--3--3--3--|


  E  E  E  E  E  E  E  E     E  E  Q    E  E  E  E     E  E  E  E  E  E  E  E   
--3--3--3--3--3--3--3--3--|-------------x--x--x-----|-----------L--x--x--x--x--|
--3--3--3--3--3--3--3--3--|-------------8--8--8--L--|--L--L--L--L--8--8--8--8--|
--5--5--5--5--5--5--5--5--|-------------7--7--7--L--|--L--L--L--L--7--7--7--7--|
--5--5--5--5--5--5--5--5--|--5--5--5----5--5--5--5--|--5--5--5--5--5--5--5--5--|
--3--3--3--3--3--3--3--3--|--5--5--5----5--5--5--5--|--5--5--5--5--5--5--5--5--|
--3--3--3--3--3--3--3--3--|--5--5--5----5--5--5--5--|--5--5--5--5--5--5--5--5--|


  E  E  Q    E  E  E  E     E  E  E  E  E  E  E  E     E  E  Q    E  E  E  E   
-----3-------------------|--------------------------|-------------------------|
-----x-------------------|--------------------------|-------------------------|
-----x-------------------|--------------------------|-------------------------|
--2--2--2----2--2--2--2--|--2--2--2--2--2--2--2--2--|--3--3--3----3--3--3--3--|
--2--2--2----2--2--2--2--|--2--2--2--2--2--2--2--2--|--3--3--3----3--3--3--3--|
--2--2--2----2--2--2--2--|--2--2--2--2--2--2--2--2--|--3--3--3----3--3--3--3--|


  E  E  E  E  E  E  E  E     E  E  E  E  E  E  E  E   
--------------------------|-----3--3--3--3--3--3--3--|
--------------------------|-----3--3--3--3--3--3--3--|
-----------------------5--|--L--5--5--5--5--5--5--5--|
--3--3--3--3--3--3--3--5--|--L--5--5--5--5--5--5--5--|
--3--3--3--3--3--3--3--3--|--L--3--3--3--3--3--3--3--|
--3--3--3--3--3--3--3--3--|-----3--3--3--3--3--3--3--|


  E  E  E  E  E  E  E  E     E  E  Q    E  E  E  E     E  E  E  E  E  E  E  E   
--3--3--3--3--3--3--3--3--|-------------x--x--x-----|-----------L--x--x--x--x--|
--3--3--3--3--3--3--3--3--|-------------8--8--8--L--|--L--L--L--L--8--8--8--8--|
--5--5--5--5--5--5--5--5--|-------------7--7--7--L--|--L--L--L--L--7--7--7--7--|
--5--5--5--5--5--5--5--5--|--5--5--5----5--5--5--5--|--5--5--5--5--5--5--5--5--|
--3--3--3--3--3--3--3--3--|--5--5--5----5--5--5--5--|--5--5--5--5--5--5--5--5--|
--3--3--3--3--3--3--3--3--|--5--5--5----5--5--5--5--|--5--5--5--5--5--5--5--5--|


  E  E  Q    E  E  E  E     E  E  E  E  E  E  E  E     E  E  Q    E  E  E  E   
-----3-------------------|--------------------------|-------------------------|
-----x-------------------|--------------------------|-------------------------|
-----x-------------------|--------------------------|-------------------------|
--2--2--2----2--2--2--2--|--2--2--2--2--2--2--2--2--|--3--3--3----3--3--3--3--|
--2--2--2----2--2--2--2--|--2--2--2--2--2--2--2--2--|--3--3--3----3--3--3--3--|
--2--2--2----2--2--2--2--|--2--2--2--2--2--2--2--2--|--3--3--3----3--3--3--3--|


              PM PM PM                                             
  E  E  E  E  E  E  E  E     W                   W                 
--------------------------|-------------------|-------------------|
--------------------------|-------------------|-------------------|
--------------------------|-------------------|-------------------|
--3--3--3--3--3--3--3--2--|--L----------------|--L----------------|
--3--3--3--3--3--3--3--2--|--L----------------|--L----------------|
--3--3--3--3--3--3--3--2--|--L----------------|--L----------------|


  H        Q.     E     W                   W                 
---------------------|-------------------|-------------------|
---------------------|-------------------|-------------------|
---------------------|-------------------|-------------------|
--L--------L------5--|--L----------------|--L----------------|
--L--------L------5--|--L----------------|--L----------------|
--L--------L------5--|--L----------------|--L----------------|


                              PM PM PM PM PM PM    PM PM PM PM PM    PM     
  H        H            E  E  E  E  E  E  E  E     E  E  E  E  E  E  E  E   
---------------------|--------------------------|--------------------------|
-----------3b--------|--L-----------------------|--------------------------|
---------------------|-----5--4--4--4--4--4--4--|--4--4--4--4--4--5--4--5--|
--L------------------|--------------------------|--------------------------|
--L------------------|--------------------------|--------------------------|
--L------------------|--------------------------|--------------------------|


                     PM PM    PM PM PM PM    PM PM PM  
  E  E  E  E  E   E  E  E     E  E  E  E  E  E  E  E   
---------------------------|--------------------------|
--------3-----1p--0--------|--------------------------|
--x--x-----x---------4--4--|--4--4--4--4--5--4--4--5--|
---------------------------|--------------------------|
---------------------------|--------------------------|
---------------------------|--------------------------|


                              PM PM PM PM PM PM    PM  
  E  E  E  E  E  E  E   E     E  E  E  E  E  E  E  E   
---------------------------|--------------------------|
--------------3-----1p--0--|--------------------------|
--4--5--x--x-----x---------|--4--4--4--4--4--4--5--4--|
---------------------------|--------------------------|
---------------------------|--------------------------|
---------------------------|--------------------------|


  PM    PM                                             
  E  E  E  E  E  E  E  E     E   E  E  E  E  E  E  E   
--------------------------|---------------------------|
--------------------3-----|--1p--0--------------------|
--4--5--4--5--x--x-----x--|---------4--4--4--4--4--4--|
--------------------------|---------------------------|
--------------------------|---------------------------|
--------------------------|---------------------------|


  E  E  E  E  E  E  E  E     E  E  E   E  E  E  E  E   
--------------------------|---------------------------|
--------------------------|--3-----1p--0--------------|
--5--4--4--5--4--5--x--x--|-----x---------4--4--4--4--|
--------------------------|---------------------------|
--------------------------|---------------------------|
--------------------------|---------------------------|


  E  E  E  E  E  E  E  E     E  E  E  E  E   E  E  E   
--------------------------|---------------------------|
--------------------------|--------3-----1p--0--------|
--4--4--5--4--4--5--4--5--|--x--x-----x---------4--4--|
--------------------------|---------------------------|
--------------------------|---------------------------|
--------------------------|---------------------------|


  E  E  E  E  E  E  E  E     E  E  E  E  E  E  E   E   
--------------------------|---------------------------|
--------------------------|--------------3-----1p--0--|
--4--4--4--4--5--4--4--5--|--4--5--x--x-----x---------|
--------------------------|---------------------------|
--------------------------|---------------------------|
--------------------------|---------------------------|


  E  E  E  E  E  E  E  E     E  E  E  E  E  E  E  E   
--------------------------|--------------------------|
--------------------------|--------------------3-----|
--4--4--4--4--4--4--5--4--|--4--5--4--5--x--x-----x--|
--------------------------|--------------------------|
--------------------------|--------------------------|
--------------------------|--------------------------|


                                                         W                 
  E   E  E  E  E  E  E  E     E  E  E  E  E  E  Q        W                 
---------------------------|--------------------------|-------------------|
--1p--0--------------------|--3--3--3--3--3--3--3b----|--5----------------|
---------4--4--4--4--4--4--|--------------------------|-------------------|
---------------------------|--------------------------|-------------------|
---------------------------|--------------------------|-------------------|
---------------------------|--------------------------|-------------------|


  E  E  E  E  E  E  E  E     E  E  E  E  E  E  E  E   
-----------------------3--|-----3--3--3--3--3--3--3--|
--L--L--L--L--L--L--L--3--|-----3--3--3--3--3--3--3--|
-----------------------5--|--L--5--5--5--5--5--5--5--|
-----------2--L--L--L--5--|--L--5--5--5--5--5--5--5--|
-----------2--L--L--L--3--|--L--3--3--3--3--3--3--3--|
-----------2--L--L--L--3--|-----3--3--3--3--3--3--3--|


  E  E  E  E  E  E  E  E     E  E  Q    E  E  E  E     E  E  E  E  E  E  E  E   
--3--3--3--3--3--3--3--3--|-------------x--x--x-----|-----------L--x--x--x--x--|
--3--3--3--3--3--3--3--3--|-------------8--8--8--L--|--L--L--L--L--8--8--8--8--|
--5--5--5--5--5--5--5--5--|-------------7--7--7--L--|--L--L--L--L--7--7--7--7--|
--5--5--5--5--5--5--5--5--|--5--5--5----5--5--5--5--|--5--5--5--5--5--5--5--5--|
--3--3--3--3--3--3--3--3--|--5--5--5----5--5--5--5--|--5--5--5--5--5--5--5--5--|
--3--3--3--3--3--3--3--3--|--5--5--5----5--5--5--5--|--5--5--5--5--5--5--5--5--|


  E  E  Q    E  E  E  E     E  E  E  E  E  E  E  E     E  E  Q    E  E  E  E   
-----3-------------------|--------------------------|-------------------------|
-----x-------------------|--------------------------|-------------------------|
-----x-------------------|--------------------------|-------------------------|
--2--2--2----2--2--2--2--|--2--2--2--2--2--2--2--2--|--3--3--3----3--3--3--3--|
--2--2--2----2--2--2--2--|--2--2--2--2--2--2--2--2--|--3--3--3----3--3--3--3--|
--2--2--2----2--2--2--2--|--2--2--2--2--2--2--2--2--|--3--3--3----3--3--3--3--|


  E  E  E  E  E  E  E  E     E  E  E  E  E  E  E  E   
--------------------------|-----3--3--3--3--3--3--3--|
--------------------------|-----3--3--3--3--3--3--3--|
-----------------------5--|--L--5--5--5--5--5--5--5--|
--3--3--3--3--3--3--3--5--|--L--5--5--5--5--5--5--5--|
--3--3--3--3--3--3--3--3--|--L--3--3--3--3--3--3--3--|
--3--3--3--3--3--3--3--3--|-----3--3--3--3--3--3--3--|


  E  E  E  E  E  E  E  E     E  E  Q    E  E  E  E     E  E  E  E  E  E  E  E   
--3--3--3--3--3--3--3--3--|-------------x--x--x-----|-----------L--x--x--x--x--|
--3--3--3--3--3--3--3--3--|-------------8--8--8--L--|--L--L--L--L--8--8--8--8--|
--5--5--5--5--5--5--5--5--|-------------7--7--7--L--|--L--L--L--L--7--7--7--7--|
--5--5--5--5--5--5--5--5--|--5--5--5----5--5--5--5--|--5--5--5--5--5--5--5--5--|
--3--3--3--3--3--3--3--3--|--5--5--5----5--5--5--5--|--5--5--5--5--5--5--5--5--|
--3--3--3--3--3--3--3--3--|--5--5--5----5--5--5--5--|--5--5--5--5--5--5--5--5--|


  E  E  Q    E  E  E  E     E  E  E  E  E  E  E  E     E  E  Q    E  E  E  E   
-----3-------------------|--------------------------|-------------------------|
-----x-------------------|--------------------------|-------------------------|
-----x-------------------|--------------------------|-------------------------|
--2--2--2----2--2--2--2--|--2--2--2--2--2--2--2--2--|--3--3--3----3--3--3--3--|
--2--2--2----2--2--2--2--|--2--2--2--2--2--2--2--2--|--3--3--3----3--3--3--3--|
--2--2--2----2--2--2--2--|--2--2--2--2--2--2--2--2--|--3--3--3----3--3--3--3--|


  E  E  E  E  E  E  E  E     E  E  E  E  E  E  E  E   
--------------------------|-----3--3--3--3--3--3--3--|
--------------------------|-----3--3--3--3--3--3--3--|
-----------------------5--|--L--5--5--5--5--5--5--5--|
--3--3--3--3--3--3--3--5--|--L--5--5--5--5--5--5--5--|
--3--3--3--3--3--3--3--3--|--L--3--3--3--3--3--3--3--|
--3--3--3--3--3--3--3--3--|-----3--3--3--3--3--3--3--|


  E  E  E  E  E  E  E  E     E  E  Q    E  E  E  E     E  E  E  E  E  E  E  E   
--3--3--3--3--3--3--3--3--|-------------x--x--x-----|-----------L--x--x--x--x--|
--3--3--3--3--3--3--3--3--|-------------8--8--8--L--|--L--L--L--L--8--8--8--8--|
--5--5--5--5--5--5--5--5--|-------------7--7--7--L--|--L--L--L--L--7--7--7--7--|
--5--5--5--5--5--5--5--5--|--5--5--5----5--5--5--5--|--5--5--5--5--5--5--5--5--|
--3--3--3--3--3--3--3--3--|--5--5--5----5--5--5--5--|--5--5--5--5--5--5--5--5--|
--3--3--3--3--3--3--3--3--|--5--5--5----5--5--5--5--|--5--5--5--5--5--5--5--5--|


  E  E  Q    E  E  E  E     E  E  E  E  E  E  E  E     E  E  Q    E  E  E  E   
-----3-------------------|--------------------------|-------------------------|
-----x-------------------|--------------------------|-------------------------|
-----x-------------------|--------------------------|-------------------------|
--2--2--2----2--2--2--2--|--2--2--2--2--2--2--2--2--|--3--3--3----3--3--3--3--|
--2--2--2----2--2--2--2--|--2--2--2--2--2--2--2--2--|--3--3--3----3--3--3--3--|
--2--2--2----2--2--2--2--|--2--2--2--2--2--2--2--2--|--3--3--3----3--3--3--3--|


              PM PM PM                                                        
  E  E  E  E  E  E  E  E     E  E  Q.     E  E  E     E  E  Q    E  E  E  E   
--------------------------|------------------------|-------------------------|
--------------------------|------------------------|-------------------------|
--------------------------|------------------------|-------------------------|
--3--3--3--3--3--3--3--7--|--L--0--0------7--5--7--|--8--0--0----0--5--0--7--|
--3--3--3--3--3--3--3--7--|--L--0--0------7--5--7--|--8--0--0----0--5--0--7--|
--3--3--3--3--3--3--3--7--|--L--0--0------7--5--7--|--8--0--0----0--5--0--7--|


  E  E  Q.     E  E  E     E  E  Q     E   E   E  E     E  E  Q.     E  E  E   
------------------------|----------------------------|------------------------|
------------------------|----------------------------|------------------------|
------------------------|-------------10--10--10-----|------------------------|
--L--0--0------7--5--7--|--8--0--0-----x---x---x--7--|--L--0--0------7--5--7--|
--L--0--0------7--5--7--|--8--0--0-----8---8---8--7--|--L--0--0------7--5--7--|
--L--0--0------7--5--7--|--8--0--0----------------7--|--L--0--0------7--5--7--|


  E  E  Q    E  E  E  E     E  E  Q.     E  E  E     E  E  Q    E   E  E  E   
-------------------------|------------------------|--------------------------|
-------------------------|------------------------|--------------------------|
-------------------------|------------------------|--------------------------|
--8--0--0----0--5--0--7--|--L--0--0------7--5--7--|--0--3--3----3s--5--5-----|
--8--0--0----0--5--0--7--|--L--0--0------7--5--7--|--0--3--3----3s--5--5-----|
--8--0--0----0--5--0--7--|--L--0--0------7--5--7--|--0--3--3----3s--5--5-----|


  W                  
-------------------||
-------------------||
-------------------||
--2----------------||
--2----------------||
--2----------------||




Duration Legend
---------------
W - whole
H - half
Q - quarter
E - 8th
S - 16th
T - 32nd
X - 64th
. - note dotted
|-n-|  - n-tuplets


Tablature Legend
----------------
L - tied note
x - dead note
g - grace note
(n) - ghost note
> - accentuded note
NH - natural harmonic
AH - artificial harmonic
TH - tapped harmonic
SH - semi harmonic
PH - pitch harmonic
h - hammer on
p - pull off
b - bend
br - bendRelease
pb - preBend
pbr - preBendRelease
brb - bendReleaseBend
\n/ - tremolo bar dip
\n - tremolo bar dive
-/n - tremolo bar Release up
/n\ - tremolo bar inverted dip
/n - tremolo bar return
-\n - tremolo bar Release down
S - shift slide
s - legato slide
/ -  slide into from below or out of upwards
\ -  slide into from above or out of downwards
~ - vibrato
W - wide vibrato
tr - trill
TP - tremolo picking
T - tapping
S - slap
P - pop
< - fade in
^ - brush up
v - brush down
Добавлено: 01.07.2012
Другие материалы по этой песне:
  • Аккорды и текст

Страница создана 01.07.2012
http://primanota.ru/janus/stranger-chords.htm
Привет, Гость.
Предлагаем пройти революционный курс по гитаре.
Подарок от PrimaNota.Ru, забирай!