PrimaNota.ru - самый крупный в мире бесплатный архив песенных текстов, аккордов, табулатур и нот


Janus - In Flames - таба, видео

Регистрация Запомнить меня
Войти через:  Facebook Google Twitter Vk Yandex Mail.ru

Janus - In Flames - таба, видео

Печатать
Просмотров: 204
-------------------------------------------------------------------------------
                                  "In Flames" - Janus
-------------------------------------------------------------------------------
Tabbed by: Daniel Thomas (DanTheMan93)
Email: dant0430@ymail.com

Tuning: Drop Bb(A#)

************************************
KEY:
| /   slide up
| \   slide down
| x   Mute note
| b   Bend
| ~   Let ring
************************************

Intro 1:
 C|-------------------| |---------------------------|
 G|-------------------| |---------------------------|
Eb|-------------------| |---------------------------|
Bb|-0--------3--------| |-0--------3----777-10-1010-|
 F|-0--------3--------| |-0--------3----777-10-1010-|
Bb|-0--------3--------| |-0--------3----777-10-1010-|

Intro 2:
 C|------------------------------------|
 G|------3-----------------------------| 
Eb|------2------101010-------------999-| 
Bb|-0-00-0--8888101010\3-33-3--7777999-|
 F|-0-00-0--88888-8-8-\3-33-3--7777777-|
Bb|-0-00-0--88888-8-8-\3-33-3--7777777-|

 C|----------------------------------------|
 G|------3---------------------------------| 
Eb|------2------101010---------------------| 
Bb|-0-00-0--8888101010\3-33-3--777/10-1010-|
 F|-0-00-0--88888-8-8-\3-33-3--777/10-1010-|
Bb|-0-00-0--88888-8-8-\3-33-3--777/10-1010-|

Verse 1: 
 C|-------------------------------------|
 G|-------------------------------------| 
Eb|--No Guitar For First Half of Verse--| 
Bb|-------------------------------------|
 F|-------------------------------------|
Bb|-------------------------------------|

 C|-------------------------------------|
 G|-------------------------------------| 
Eb|-------------------------------------| 
Bb|-------------------------------------|
 F|-------------------------------------|
Bb|-0-0000000-5555777-3-3333333-8888777-|
      xxxxxxx           xxxxxxx
 
 C|-----------------------------------------|
 G|-----------------------------------------| 
Eb|-----------------------------------------| 
Bb|-----------------------------------------|
 F|-----------------------------------------|
Bb|-0-0000000-5555777-3-3333333-777-10-1010-|
      xxxxxxx           xxxxxxx

Chorus 1:
 C|------------------------------------|
 G|------3-----------------------------| 
Eb|------2------101010-------------999-| 
Bb|-0-00-0--8888101010\3-33-3--7777999-|
 F|-0-00-0--88888-8-8-\3-33-3--7777777-|
Bb|-0-00-0--88888-8-8-\3-33-3--7777777-|

 C|----------------------------------------|
 G|------3---------------------------------| 
Eb|------2------101010---------------------| 
Bb|-0-00-0--8888101010\3-33-3--777/10-1010-|
 F|-0-00-0--88888-8-8-\3-33-3--777/10-1010-|
Bb|-0-00-0--88888-8-8-\3-33-3--777/10-1010-|

 C|------------------------------------|
 G|------3-----------------------------| 
Eb|------2------101010-------------999-| 
Bb|-0-00-0--8888101010\3-33-3--7777999-|
 F|-0-00-0--88888-8-8-\3-33-3--7777777-|
Bb|-0-00-0--88888-8-8-\3-33-3--7777777-|

 C|----------------------------------------|
 G|------3---------------------------------| 
Eb|------2------101010---------------------| 
Bb|-0-00-0--8888101010\3-33-3--777/10-1010-|
 F|-0-00-0--88888-8-8-\3-33-3--777/10-1010-|
Bb|-0-00-0--88888-8-8-\3-33-3--777/10-1010-|

Pre-Verse: (An open chord that only rings for a short time) [Listen to song so you 
know when to mute it]
 C|------|
 G|------| 
Eb|------| 
Bb|-0~---|
 F|-0~---|
Bb|-0~---|

Verse 2: 
 C|-------------------------------------|
 G|-------------------------------------| 
Eb|--No Guitar For First Half of Verse--| 
Bb|-------------------------------------|
 F|-------------------------------------|
Bb|-------------------------------------|

 C|-------------------------------------|
 G|-------------------------------------| 
Eb|-------------------------------------| 
Bb|-------------------------------------|
 F|-------------------------------------|
Bb|-0-0000000-5555777-3-3333333-8888777-|
      xxxxxxx           xxxxxxx
 
 C|-----------------------------------------|
 G|-----------------------------------------| 
Eb|-----------------------------------------| 
Bb|-----------------------------------------|
 F|-----------------------------------------|
Bb|-0-0000000-5555777-3-3333333-777-10-1010-|
      xxxxxxx           xxxxxxx
        
Chorus 2:
 C|------------------------------------|
 G|------3-----------------------------| 
Eb|------2------101010-------------999-| 
Bb|-0-00-0--8888101010\3-33-3--7777999-|
 F|-0-00-0--88888-8-8-\3-33-3--7777777-|
Bb|-0-00-0--88888-8-8-\3-33-3--7777777-|

 C|----------------------------------------|
 G|------3---------------------------------| 
Eb|------2------101010---------------------| 
Bb|-0-00-0--8888101010\3-33-3--777/10-1010-|
 F|-0-00-0--88888-8-8-\3-33-3--777/10-1010-|
Bb|-0-00-0--88888-8-8-\3-33-3--777/10-1010-|

 C|------------------------------------|
 G|------3-----------------------------| 
Eb|------2------101010-------------999-| 
Bb|-0-00-0--8888101010\3-33-3--7777999-|
 F|-0-00-0--88888-8-8-\3-33-3--7777777-|
Bb|-0-00-0--88888-8-8-\3-33-3--7777777-|

 C|----------------------------------------|
 G|------3---------------------------------| 
Eb|------2------101010---------------------| 
Bb|-0-00-0--8888101010\3-33-3--777/10-1010-|
 F|-0-00-0--88888-8-8-\3-33-3--777/10-1010-|
Bb|-0-00-0--88888-8-8-\3-33-3--777/10-1010-|

Bridge: 
 C|--------------------------------|
 G|--------------------------------|
Eb|--------------------------------|
Bb|--------------------------------|
 F|------------7-------3-------5---|
Bb|-0--7-0-7-8---0-3-5---0-5-7---7-| 

 C|--------------------------------------------------|
 G|--------------------------------------------------|
Eb|--------------------------------------------------|
Bb|--------------------------------3-333333-5-555555-|
 F|------------7-------3-------5---3-333333-5-555555-|
Bb|-0--7-0-7-8---0-3-5---0-5-7---7-3-333333-5-555555-|

 C|--------------------------------------------------|
 G|--------------------------------------------------|
Eb|--------------------------------------------------|
Bb|--------------------------------3-333333-7-777777-|
 F|------------7-------3-------5---3-333333-7-777777-|
Bb|-0--7-0-7-8---0-3-5---0-5-7---7-3-333333-7-777777-|

 C|--------------------------------------------------|
 G|--------------------------------------------------|
Eb|--------------------------------------------------|
Bb|--------------------------------3-333333-5-555555-|
 F|------------7-------3-------5---3-333333-5-555555-|
Bb|-0--7-0-7-8---0-3-5---0-5-7---7-3-333333-5-555555-|

 C|--------------------------------------------------|
 G|--------------------------------------------------|
Eb|----------------------------------------------999-|
Bb|--------------------------------3-333333-7-777999-|
 F|------------7-------3-------5---3-333333-7-777777-|
Bb|-0--7-0-7-8---0-3-5---0-5-7---7-3-333333-7-777777-|

Chorus 3:
 C|------------------------------------|
 G|------3-----------------------------| 
Eb|------2------101010-------------999-| 
Bb|-0-00-0--8888101010\3-33-3--7777999-|
 F|-0-00-0--88888-8-8-\3-33-3--7777777-|
Bb|-0-00-0--88888-8-8-\3-33-3--7777777-|

 C|----------------------------------------|
 G|------3---------------------------------| 
Eb|------2------101010---------------------| 
Bb|-0-00-0--8888101010\3-33-3--777/10-1010-|
 F|-0-00-0--88888-8-8-\3-33-3--777/10-1010-|
Bb|-0-00-0--88888-8-8-\3-33-3--777/10-1010-|

 C|------------------------------------|
 G|------3-----------------------------| 
Eb|------2------101010-------------999-| 
Bb|-0-00-0--8888101010\3-33-3--7777999-|
 F|-0-00-0--88888-8-8-\3-33-3--7777777-|
Bb|-0-00-0--88888-8-8-\3-33-3--7777777-|

 C|----------------------------------------|
 G|------3---------------------------------| 
Eb|------2------101010---------------------| 
Bb|-0-00-0--8888101010\3-33-3--777/10-1010-|
 F|-0-00-0--88888-8-8-\3-33-3--777/10-1010-|
Bb|-0-00-0--88888-8-8-\3-33-3--777/10-1010-|

 C|-------------------------------------------|
 G|-------------------------------------------| 
Eb|--------------------101010-------------999-|
Bb|-0---------12/3-8888101010\3-33-3--7777999-|
 F|-0---------12/3-88888-8-8-\3-33-3--7777777-|
Bb|-0--0-0000------88888-8-8-\3-33-3--7777777-|
       x xxxx
 C|----------------------------------------|
 G|------3---------------------------------| 
Eb|------2------101010---------------------| 
Bb|-0-00-0--8888101010\3-33-3--777/10-1010-|
 F|-0-00-0--88888-8-8-\3-33-3--777/10-1010-|
Bb|-0-00-0--88888-8-8-\3-33-3--777/10-1010-|

Outro: (Just like the Pre-Verse)
 C|------|
 G|------| 
Eb|------| 
Bb|-0~---|
 F|-0~---|
Bb|-0~---|
Добавлено: 23.07.2013
Другие материалы по этой песне:
  • Аккорды и текст

Страница создана 23.07.2013
http://primanota.ru/janus/in-flames-chords.htm
Привет, Гость.
Предлагаем пройти революционный курс по гитаре.
Подарок от PrimaNota.Ru, забирай!