PrimaNota.ru - самый крупный в мире бесплатный архив песенных текстов, аккордов, табулатур и нот


Janus - Eyesore - таба, видео

Регистрация Запомнить меня
Войти через:  Facebook Google Twitter Vk Yandex Mail.ru

Janus - Eyesore - таба, видео

Печатать
Просмотров: 266
Уроки эстрадного вокала в Санкт-Петербурге
-------------------------------------------------------------------------------
			     EYESORE - Janus
-------------------------------------------------------------------------------
Tabbed by:6stringfreak14
Email:6stringfreak14@live.com

Tuning:Drop C

Intro Part 1				
	
D|-------------|--------------------------|
A|6~~-----6~~--|--------------------------|
F|7~~-----7~~--|--------------------------|
C|7~~-----7~~--|--3-3--3-3p0--3-3--3-3p0--|
G|5~~-----5~~--|--3-3--3-3p0--3-3--3-3p0--|
C|0~~-----0~~--|--3-3--3-3p0--3-3--3-3p0--|
					

Intro Part 2/Chorus

Play this twice                                                               
 |----------^---------------------------------------------------------------------|
|-----------------------------------------|----------------------------------------|
|-----------------------------------------|----------------------------------------|
|-----------------------------------------|----------------------------------------|
|-----------------------------------------|----------------------------3-3--3-3p0--|
|-----7-7h8----5-5h7----3-3h5----2h3p2p0--|-----7-7h8----5h7----3-3h5--3-3--3-3p0--|
|--0-0------0-0------0-0------0-0---------|--0-0------0-0----0-0-------3-3--3-3p0--|
   . .      . .      . .      . .            . .      . .    . .                     

Play this when going into the verse
|--------------|
|--------------|
|--5-5--5-5-5--|
|--5-5--5-5-5--|
|--3-3--3-3-3--|
|--------------|

Verse 1

D|---------------------------------------------------------------------------------------|
A|---------------------------------------------------------------------------------------|
F|---10-9h10----10-9h10----10-9h10----12-9h10----10-9h10----10-9h10----10-9h10----5-5h7--|
C|0-0--0-----0-0--0-----0-0--0-----0-0--0-----0-0--0-----0-0--0-----0-0--0-----0-0-0-----|
G|---------------------------------------------------------------------------------------|
C|---------------------------------------------------------------------------------------|
  . .  .     . .  .     . .  .     . .  .     . .  .     . .  .     . .  .     . . . 

D|----------------------------------------------------------------------------------------|
A|----------------------------------------------------------------------------------------|
F|---10-9h10----10-9h10----10-9h10----12-9h10--9h10--9h10-12-9-9h10--9h10--9h10-14/12\15--|
C|0-0--0-----0-0--0-----0-0--0-----0-0--0-----0-----0-------0-0-----0-----0---------------|
G|----------------------------------------------------------------------------------------|
C|----------------------------------------------------------------------------------------|
  . .  .     . .  .     . .  .     . .  .     .     .       . .     .     .       

Prechorus
(strum along its not that hard)
D|-------|-------|-------|------------------------------------|
A|-------|-------|-------|------------------------------------|
F|-------|-------|-------|------------------------------------|
C|-8-3-5-|-8-3-5-|-8-3-5-|----------8-8--8--8--10-10--10--10--|
G|-8-3-5-|-8-3-5-|-8-3-5-|----------8-8--8--8--10-10--10--10--|
C|-8-3-5-|-8-3-5-|-8-3-5-|-88777777-8-8--8--8--10-10--10--10--|

Chorus is the second part of intro

Verse 2
             (Wah on at middle point)

D|----|-----------------------------------------------------------------------|
A|----|-----------------------------------------------------------------------|
F|----|-----------------------------------------------------------------------|
C|-0~-|-------888888-555555-777777-------888888-555555-10-10-10-10-10-10------|
G|-0~-|-555555---------------------555555-------------------------------------|
C|-0~-|-----------------------------------------------------------------------| x2

Prechorus

Chorus

Chord for intro

D|----------------------|     |------------------------| |------------------------|
A|----------------------|     |------------------------| |------------------------|
F|----------------------|     |------------------------| |------------------------|
C|----------------------|     |------------------------| |------------------------|
G|0-0-0--0-0--0--0-0-0--|     |0-0-0--0-0--0--0-0------| |--0-0-0--0-0--0--0-0-0--|
C|0-0-0--0-0--0--0-0-0--|x3   |0-0-0--0-0--0--0-0-3^5--| |--0-0-0--0-0--0--0-0-0--|x3
  . . .  . .  .  . . .         . . .  . .  .  . .           . . .  . .  .  . . .

Prechorus but ending is this

D|---------------------|
A|---------------------|
F|---------------------|
C|------------------2--|
G|-----0-1-3---0-1-3---|
C|2-3-5-----3-5--------|

Chorus

Outro

D|---------------------------------------|
A|---------------------------------------|
F|---------------------------------------|
C|---------------------------------------|
G|0-0-0-0-0-0-0-0-0-0-0-0-0-0-0-0-0-0-0--|
C|0-0-0-0-0-0-0-0-0-0-0-0-0-0-0-0-0-0-0--|
  . . . . . . . . . . . . . . . . . . 


| /  slide up
| \  slide down
| h  hammer-on
| p  pull-off
| ~  vibrato
| +  harmonic
| x  Mute note
===============================================================================
Добавлено: 25.02.2012
Другие материалы по этой песне:

Страница создана 25.02.2012
http://primanota.ru/janus/eyesore-chords.htm
Привет, Гость.
Предлагаем пройти революционный курс по гитаре.
Подарок от PrimaNota.Ru, забирай!