PrimaNota.ru - самый крупный в мире бесплатный архив песенных текстов, аккордов, табулатур и нот


Jannsen - Me To You - аккорды и текст, таба, видео

Регистрация Запомнить меня
Войти через:  Facebook Google Twitter Vk Yandex Mail.ru

Jannsen - Me To You - аккорды и текст, таба, видео

Печатать
Просмотров: 174
Уроки эстрадного вокала в Санкт-Петербурге
Me To You
Jannsen
ME to YOU
jannsen
Lyrics : Lea M.

Standard tuning ebgdaE
Intro:G pause w/ digital delay then plucking w/ chorus and flanger 

    G                         C                         D
e/---------------------------------------------------------------------------|
b/---------3---------3--------------3--------3----------------3----------3---|
g/------0-----0------------------0-----0-------------------2-----2-----------|
d/------------------------------------------------------0---------------0----|
a/----------------------------3------------3---------------------------------|
E/--3------------3-----------------------------------------------------------|

    G                         C                         Dsus
e/---------------------------------------------------------------3-----------|
b/---------3------------------------3--------3--------------------3------3---|
g/------0-----0------------------0-----0-------------------2-----------------|
d/------------------------------------------------------0---------------0----|
a/----------------------------3------------3---------------------------------|
E/--3-------------3----------------------------------------------------------|

Verse 1:  G  C  D  G  C  Dsus  G  C  Dsus

Your happy now
and im glad you know
just to see your smile
even its not for me

Chorus :  G  C  D  G  C  Dsus   C  D  C  Dsus 

Im happy to see you glad
and glad to see happy 
coz you know if you cry……
I'll cry too

Repeat intro
Verse 2  G  C  Dsus  G  C  D  G  C  Dsus  G  C  Dsus

Keep that smile
so my tears wont shed 
cause that smile
keep my day alright

Chorus then repeat intro
Outro   C  D  C  Dsus  then  end  with  Ghold

cause you know if you die …..
I'll die too



Guitar effects: Digital delay,ultra chorus and ultra flanger
Добавлено: 28.03.2012
Вам также может быть интересно:
Другие материалы по этой песне:
  • Аккорды и текст

Страница создана 28.03.2012
http://primanota.ru/jannsen/me-to-you-chords.htm
Привет, Гость.
Предлагаем пройти революционный курс по гитаре.
Подарок от PrimaNota.Ru, забирай!