PrimaNota.ru - самый крупный в мире бесплатный архив песенных текстов, аккордов, табулатур и нот


Janis Joplin - Summertime Live - таба, видео

Регистрация Запомнить меня
Войти через:  Facebook Google Twitter Vk Yandex Mail.ru

Janis Joplin - Summertime Live - таба, видео

Печатать
Просмотров: 202
Janis Joplin - Summertime Live in Frankfurt

|-15-14-15-10---15-14-15-11-14-14/17---15-14-15-10--11-10-----------------|
|---------------------------------------------------------13-11-10h11p10--|
|-------------------------------------------------------------------------|
|-------------------------------------------------------------------------|
|-------------------------------------------------------------------------|
|-------------------------------------------------------------------------|

|-15-14-15-10-11p10---15-14-15-17-10---15-14-15-10-11-10------------------|
|--------------------------------------------------------13-11-10-11-10---|
|-------------------------------------------------------------------------|
|-------------------------------------------------------------------------|
|-------------------------------------------------------------------------|
|-------------------------------------------------------------------------|

|-------------------10-11-8-10-6-8-5-6--8-8/10--8/10----15-14-11-10-------|
|----------10-11-13-------------------------------------------------13-11-|
|-12-11-12----------------------------------------------------------------|
|-------------------------------------------------------------------------|
|-------------------------------------------------------------------------|
|-------------------------------------------------------------------------|

                 x30
|----------|-------|----------------------------------10-11-8-10-6-8-5-6--|
|-10h11p10-|11p10--|-10h11-10-11-10----------10-11-13---------------------|
|----------|-------|----------------12-11-12------------------------------|
|----------|-------|------------------------------------------------------|
|----------|-------|------------------------------------------------------|
|----------|-------|------------------------------------------------------|

|-3-5-3-6-5-3-/8-6-5-10-8-6-11-10-8-14-11-10-11--10-----------------10----|
|---------------------------------------------------13-11-10--11-13-------|
|-------------------------------------------------------------------------|
|-------------------------------------------------------------------------|
|-------------------------------------------------------------------------|
|-------------------------------------------------------------------------|

|-------------------------------------(3)---------------3-----------3-----|
|---------(3)---------(3)---------(3)-----(3)---------2---2-------1---1---|
|-----(3)---------(3)---------(3)-------------(3)---3-------3---3-------3-|
|-(5)---------(4)---------(3)---------------------2-----------1-----------|
|-------------------------------------------------------------------------|
|-------------------------------------------------------------------------|

|-------------------3-5-6-6-5-3-8-6-5-10-8-6-11-10-8--10-11-11/15-15-14---|
|-----3-----3-3-4-6-------------------------------------------------------|
|---3-----3---------------------------------------------------------------|
|-5-----4-----------------------------------------------------------------|
|-------------------------------------------------------------------------|
|-------------------------------------------------------------------------|

|----10-11-------11----15---20--15--11--11--------------------------------|
|-13-------13----13----16---20--16--13--13--------------------------------|
|-------------12-12----17---20--17--12--12--------------------------------|
|------------------------------------------x-x-x-x-----------------5-7-8--|
|------------------------------------------x-x-x-x--6/8-6-5--5-6-8--------|
|-------------------------------------------------------------------------|

|-------------------------------------------------------------------------|
|---------8-7----------------------------------------------------------3--|
|-------------7-8-7-0-5-5---------------------5--------------7-------3----|
|-5-7-8-------------------5-8-7-5-8p7p5-8p7p5---5-7-8-10p8p7-----3-5------|
|--------------------------------------------------------------5----------|
|-------------------------------------------------------------------------|

|--------------3-5-6--------3-----------3-------------------------3-5-3-6-|
|-----3------3------------2---2-------1-----------3-------3-3-4-6---------|
|---3------3------------3-------3---3-----------3-----3h5-----------------|
|-4------3------------2-----------1-------1-3-5-----4---------------------|
|-------------------------------------------------------------------------|
|-------------------------------------------------------------------------|

|-5-3-8-6-5-6-5-----------------------------------------------------------|
|---------------8-6-4-3---------------------------3-4-6h8p6---------------|
|-----------------------5-3-2---------------2-3-5-------------------------|
|-----------------------------5-3-------3-5-------------------------------|
|---------------------------------6-5-3-----------------------------------|
|-------------------------------------------------------------------------|

|-6--6--6--6--6--6--6--6-6-6--6--6--6h8-6-8-8h10-8-10--15-14-15-10--11-10-|
|-------------------------------------------------------------------------|
|-------------------------------------------------------------------------|
|-------------------------------------------------------------------------|
|-------------------------------------------------------------------------|
|-------------------------------------------------------------------------|

|----------------------------------10-11-10--13-11--11/10-10--11-10-10----|
|-13-11-10-11-10----------10-11-13----------------------------------------|
|----------------12-11-12-------------------------------------------------|
|-------------------------------------------------------------------------|
|-------------------------------------------------------------------------|
|-------------------------------------------------------------------------|

|-15-14-15-10---15-14-15-11-14-14/17---15-14-15-10--11-10-----------------|
|---------------------------------------------------------13-11-10-11-10--|
|-------------------------------------------------------------------------|
|-------------------------------------------------------------------------|
|-------------------------------------------------------------------------|
|-------------------------------------------------------------------------|

|-------------------10-11----10---------------------------------13------17|
|----------10-11-13-------13----11-13-10-11-10-11-13-13/15----------------|
|-12-11-12-------------------------------------------------9/14----15/17--|
|-------------------------------------------------------------------------|
|-------------------------------------------------------------------------|
|-------------------------------------------------------------------------|

|----17-------15-17-18-18/20-18-20-20/22-22------11----11----11----11-----|
|----------15---------------------------------11----15----13----11----13--|
|-17----15----------------------------------------------------------------|
|-------------------------------------------------------------------------|
|-------------------------------------------------------------------------|
|-------------------------------------------------------------------------|

|-11----11-----------------11----11----11----11----11----11---------------|
|----15----15/16-15-13--11----15----13----11----15----13----16/18-16-15-13|
|-------------------------------------------------------------------------|
|-------------------------------------------------------------------------|
|-------------------------------------------------------------------------|
|-------------------------------------------------------------------------|

|----10----10----10----10----10----10----11----11----11----11----11----11-|
|-10----13----11----10----13----11----11----15----13----11----15----13----|
|-------------------------------------------------------------------------|
|-------------------------------------------------------------------------|
|-------------------------------------------------------------------------|
|-------------------------------------------------------------------------|

|----10----10----10---8----8----8---6----6---6---5------------------------|
|-10----13----11----8---11---10---6---10---8---5---8-7-7h8--6-4-4/6-------|
|-------------------------------------------------------------------------|
|-------------------------------------------------------------------------|
|-------------------------------------------------------------------------|
|-------------------------------------------------------------------------|

|----------------------------------------------------------6---------(3)--|
|-4----------6-6/7--6h7-7/8--6-4-4/6--4----------6-6/7-----6---------(3)--|
|---5-5/7--8----------------------------5-5/7--8-----------8---------(3)--|
|----------------------------------------------------------7---------(5)--|
|----------------------------------------------------------7---------(5)--|
|------------------------------------------------------5-5-6-(1)-(2)-(3)--|

|-------3----3-6b-6br-3----3----------------------------------------------|
|-----3----6b-----------6b---6/8----------12----------------12------------|
|-5b-----------------------------------12----12----------12----12---------|
|-----------------------------------12----------12----12----------12------|
|--------------------------------10----------------10----------------10---|
|-------------------------------------------------------------------------|


|-------------------------------------------------------------------------|
|----------12----------------12----------------11----------------11-------|
|-------12----12----------12----12----------12----12----------12----12----|
|----12----------12----12----------12----12----------12----12----------12-|
|-10----------------10----------------13----------------13----------------|
|-------------------------------------------------------------------------|

|---------------------------------------------3-5-6-------3-----------3---|
|-------------------------------3-----3-----3-----------2---2-------1-----|
|----------12-----------------3-----3-----3-----------3-------3---3-------|
|----12-13----13-------15---5-----4-----3-----------2-----------1---------|
|-15-------------15-17----------------------------------------------------|
|-------------------------------------------------------------------------|

|-----------------------3-5-3-6-5-3-8-6-5-10-8-6-11-10-8-13-11-10-11-10---|
|---------3-----3-3-4-6-------------------------------------------------13|
|-------3-----3-----------------------------------------------------------|
|-1-3-5-----4-------------------------------------------------------------|
|-------------------------------------------------------------------------|
|-------------------------------------------------------------------------|

|-------------------------------10/11--11----------11-11/15-15----------15|
|-11-10-11-10----------10-11-13-----------13----13-------------16----16---|
|-------------12-11-12-----------------------12-------------------17------|
|-------------------------------------------------------------------------|
|-------------------------------------------------------------------------|
|-------------------------------------------------------------------------|

|----15------20-20--------------------------------------------------------|
|-16------16-20-20----15-16----15-16--------------------------------------|
|------------------17-------17---------------------5-7-8-5-7-5-7-8--------|
|--------------------------------------------5-7-8------------------------|
|------------------------------------x-5-6-8------------------------------|
|-------------------------------------------------------------------------|

|--------------------------------------------------------------3----------|
|-----------------------------------------------3-----3------3---3--------|
|-7-7-7-7-7-7-5-5-5-5-5-5---------------------3-----3------3-------3------|
|-------------------------8-8-8-8-8-8-7---3-5-----4------3----------------|
|---------------------------------------5---------------------------------|
|-------------------------------------------------------------------------|

|-------3-----------3-----------------------3-5-3-6-5-3-8-6-5-6-5---------|
|-----2---2-------1-----------3-----3-3-4-6-----------------------8-6-4---|
|---3-------3---3-----------3-----3---------------------------------------|
|-2-----------1-------1-3-5-----4-----------------------------------------|
|-------------------------------------------------------------------------|
|-------------------------------------------------------------------------|

|---------------------------------------6-6-6-6-6-6-6-6-6--6-6h8-6-8-8h10-|
|-3---------------------------3-4-6h8p6-----------------------------------|
|---5-3-2---------------2-3-5---------------------------------------------|
|---------5-3-------3-5---------------------------------------------------|
|-------------6-5-3-------------------------------------------------------|
|-------------------------------------------------------------------------|

|-8-10---15-14-15-10--15-14-15-11-14-14/17--15-14-15-10--11-10------------|
|--------------------------------------------------------------13-11-10---|
|-------------------------------------------------------------------------|
|-------------------------------------------------------------------------|
|-------------------------------------------------------------------------|
|-------------------------------------------------------------------------|

|---------------------------10--15----------------------------------------|
|-11-10----------10--11--13-----15----------------------------------------|
|-------12-11-12----------------15----------------------------------------|
|-------------------------------------------------------------------------|
|-------------------------------------------------------------------------|
|-------------------------------------------------------------------------|
Добавлено: 28.08.2013
Другие материалы по этой песне:
  • Аккорды и текст

Страница создана 28.08.2013
http://primanota.ru/janis-joplin/summertime-live-chords.htm
Привет, Гость.
Предлагаем пройти революционный курс по гитаре.
Подарок от PrimaNota.Ru, забирай!