PrimaNota.ru - самый крупный в мире бесплатный архив песенных текстов, аккордов, табулатур и нот


Janina Porazińska - Był Sobie Król - таба, видео

Регистрация Запомнить меня
Войти через:  Facebook Google Twitter Vk Yandex Mail.ru

Janina Porazińska - Był Sobie Król - таба, видео

Печатать
Просмотров: 179
Уроки эстрадного вокала в Санкт-Петербурге
-------------------------------------------------------------------------------
                             Był sobie król - By Prendki
-------------------------------------------------------------------------------
Tabbed by:Prendki
E-mail:mati9622@gmail.com
Adnt: Grane Bardzo Szybko !!!

Tuning:Standard

Intro
e|------------10----------------10----------------10---------------10---------------10---------------10----|
B|------10-------10-------10-------10-------10-------10------10-------10------10-------10------10-------10-|
G|---10----10----------10----10----------10----10---------10----10---------10----10---------10----10-------|
D|12----------------11----------------10----------------9----------------8----------------8----------------|
A|---------------------------------------------------------------------------------------------------------|
E|---------------------------------------------------------------------------------------------------------|

e|------9----|
B|----8------|
G|--9--------|
D|7----------|
A|-----------|
E|-----------| ...
************************************************
Whole Song
D-moll
e|----1---|
B|--3--3--|
G|-2-2----|
D|0-------|
A|--------|
E|--------|
D7
e|----2---|
B|--1--1--|
G|-2-2----|
D|0-------|
A|--------|
E|--------|
G
e|--------|   
B|----3---|
G|--0--0--|
D|-0-0----|
A|--------|
E|3-------|
A
e|--------|   
B|----3---|
G|--3--3--|
D|-3-3----|
A|0-------|
E|--------|
**********************************
Pierwsza Linia | First Line
D-moll:Już księżyc 
D-moll:zgasł
D-moll:zapadła 
D-moll:noc, 
D7:sen zmorzył
D7:mą la-
G:-le-
G:czkę.
-------------------------
Druga Linia | Second Line
-------------------------
G:Więc oczka
A:zmruż 
D-moll:i zaśnij 
D-moll:już, 
A:opowiem 
A:ci ba-
D-moll:-jecz
D7:-kę.
-------------------------
Trzecia Linia | Third Line
-------------------------
G:Więc oczka
A:zmruż 
D-moll:i zaśnij 
D-moll:już, 
A:opowiem 
A:ci ba-
D-moll:-jecz
D-moll:-kę.
itd...
*********************************************
Text
*********************************************
Już księżyc zgasł, zapadła noc, sen zmorzył mą laleczkę,
Więc oczka zmruż i zaśnij już, opowiem ci bajeczkę.
Więc oczka zmruż i zaśnij już, opowiem ci bajeczkę.

Był sobie król, był sobie paź i była też królewna,
Żyli wśród róż, nie znali burz, rzecz najzupełniej pewna.
Żyli wśród róż, nie znali burz, rzecz najzupełniej pewna.
 
Kochał ją król, kochał ją paź, królewską tę dziewoję,
Królewna też kochała ich, kochali się we troje.
Królewna też kochała ich, kochali się we troje.
 
Tragiczny los, okrutna śmierć w udziale im przypadła:
Króla zjadł kot, pazia zjadł pies, królewnę myszka zjadła.
Króla zjadł kot, pazia zjadł pies, królewnę myszka zjadła.
 
Lecz żeby ci nie było żal dziecino ukochana:
Z cukru był król, z piernika paź, królewna z marcepana.
Z cukru był król, z piernika paź, królewna z marcepana.


************************************

| /   slide up
| \   slide down
| h   hammer-on
| p   pull-off
| ~   vibrato
| +   harmonic
| x   Mute note
| b   Bend
| pb  Pre-bend
| br  Bend release
| pbr Pre-bend release
| brb Bend release bend

************************************
Добавлено: 19.12.2015
Другие материалы по этой песне:
  • Аккорды и текст

Страница создана 19.12.2015
http://primanota.ru/janina-porazinska/by-sobie-krol-chords.htm
Привет, Гость.
Предлагаем пройти революционный курс по гитаре.
Подарок от PrimaNota.Ru, забирай!