PrimaNota.ru - самый крупный в мире бесплатный архив песенных текстов, аккордов, табулатур и нот


Jang Jae In - Auditory Hallucination - таба, видео

Регистрация Запомнить меня
Войти через:  Facebook Google Twitter Vk Yandex Mail.ru

Jang Jae In - Auditory Hallucination - таба, видео

Печатать
Просмотров: 58
-------------------------------------------------------------------------------
           AUDITORY HALLUCINATION (환청) - Jang Jae In Ft. NaShow
-------------------------------------------------------------------------------
Tabbed by: WaylonSung

Tuning: No Capo / Standard Tuning

e|-3-------3--2------2--0------0----------------------------------------------0\--|
B|-----0---------0-----------------3-----3--1-----1---0-----0-----------------0\--|
G|--------------------------0---------0-------------------------2-----2---2---0\--|
D|-2----------0--------------------------------2---------2---------2----------0\--|
A|----------------------3----------2--------0-----------------------------2---0\--|
E|----------------------------------------------------3---------2-------------0\--|

You have to repeat this until the end of the song. I arranged it as the intro of this song but
you can definitely play it all along during the entire song and sing with it since it's also
the instrumental tab.

If something sounds weird or is really wrong just post a comment below.

Thank you ! Enjoy.

*********************

\ slide down

********************
Добавлено: 01.06.2016
Другие материалы по этой песне:
  • Аккорды и текст

Страница создана 01.06.2016
http://primanota.ru/jang-jae-in/auditory-hallucination-chords.htm
Привет, Гость.
Предлагаем пройти революционный курс по гитаре.
Подарок от PrimaNota.Ru, забирай!