PrimaNota.ru - самый крупный в мире бесплатный архив песенных текстов, аккордов, табулатур и нот


Janez Detd - Breaking The Waves - текст песни, бас-таба, видео

Регистрация Запомнить меня
Войти через:  Facebook Google Twitter Vk Yandex Mail.ru

Janez Detd - Breaking The Waves - текст песни, бас-таба, видео

Печатать
Просмотров: 150
Janez detd – breaking the waves

intro
|-------------------------------------------------------------------------|
|-------------------------------------------------------------------------|
|0~---7~---5~---4~-------------5~-----------------------------------------|
|--------------------2~---0~----------55~---22~---00~---55~---22~---00~---|

Verse
|-------------------------------------------------------------------------|
|--------------------------------------------------------2-22-22—-2-22-22-|
|-------------------------------------------------------------------------|
|5-55-55—-2-22-22—-0-00-00—0-00-00--5-55-55—-2-22-22—---------------------|

Chorus x3
|--------------------------------------------|
|--------------------------------------------|
|-----555555------000000---------------------|
|2-22—-------0-00----------------------------|

End chorus x2
|--------------------------------------------|
|--------------------------------------------|
|------------------5~------------------------|
|2~-------0~---------------------------------|

Verse
Chorus x3
End chorus x2

Interlude1 
|------------------------------------------------------|
|------------------------------------------------------|
|------------------------------------------------------|
|55-55-55—55--22-22—22-22--00-00-00—00--xxxxxxxx-------|

Interlude2 x2
|------------------------------------------------------|
|---------------------------2222222222--0000000000-----|
|------------------------------------------------------|
|5555555555--2222222222--------------------------------|

Interlude3
|------------------------------------------------------|
|------------------------------------------------------|
|----------------------------------------------55555555|
|5~----2~----0~----5~----2~----0~----00000000----------|

Chorus x3

Outro
|------------------------------------------------------------------|
|-------------------------------------22222222---------------------|
|------------------55555555--44444444----------00000000------------|
|22222222-00000000--------------------------------------44444444—5~|



Добавлено: 26.02.2012
Другие материалы по этой песне:
  • Аккорды и текст

Страница создана 26.02.2012
http://primanota.ru/janez-detd/breaking-the-waves-chords.htm
Привет, Гость.
Предлагаем пройти революционный курс по гитаре.
Подарок от PrimaNota.Ru, забирай!