PrimaNota.ru - самый крупный в мире бесплатный архив песенных текстов, аккордов, табулатур и нот


Janet Devlin - Friday Im In Love - таба, видео

Регистрация Запомнить меня
Войти через:  Facebook Google Twitter Vk Yandex Mail.ru

Janet Devlin - Friday Im In Love - таба, видео

Печатать
Просмотров: 104
JANET DEVLIN - FRIDAY, I'M IN LOVE

STANDARD TUNING (eBGDAE)

CAPO 3



INTRO:

e|--------------------------------------|
B|-----3--------3--------3--------3-----|
G|---2---2----2---2----2---2----2---2---|
D|-0--------0--------0--------0---------|
A|--------------------------------------|
E|--------------------------------------|


VERSES: (I don't care if Monday's blue...)
         D                G
e|--------------------------------------|
B|-----3--------3--------3--------3-----|
G|---2---2----2---2----0---0----0---0---|
D|-0--------0---------------------------|
A|--------------------------------------|
E|------------------3--------3----------|

(Tuesday's grey and Wednesday, too...)
         D                A
e|--------------------------------------|
B|-----3--------3--------3--------3-----|
G|---2---2----2---2--------3--------3---|
D|-0--------0---------3--------3--------|
A|------------------0--------0----------|
E|--------------------------------------|

(Thursday, I don't care about you...)
         Bm                G
e|--------------------------------------|
B|-----3---------3--------3--------3----|
G|-------4---------4----0---0----0---0--|
D|---4--------4-------------------------|
A|-2--------2---------------------------|
E|-------------------3---------3--------|

(It's Friday, I'm in love...)
       D                     A
e|--------------------------------------|
B|-----3--------3--------3--------3-----|
G|---2---2----2---2--------3--------3---|
D|-0--------0---------3--------3--------|
A|------------------0--------0----------|
E|--------------------------------------|


CHORUS: (Saturday, wait...)
         G                 A
e|--------------------------------------|
B|-----3--------3--------3--------3-----|
G|---0---0----0---0--------3--------3---|
D|--------------------3--------3--------|
A|------------------0--------0----------|
E|-3-------3----------------------------|

(Sunday always comes too late...)
      Bm                   G
e|--------------------------------------|
B|-----3---------3--------3--------3----|
G|-------4---------4----0---0----0---0--|
D|---4--------4-------------------------|
A|-2--------2---------------------------|
E|-------------------3--------3---------|

(But Friday, never hesitate...)
      D                      A
e|--------------------------------------|
B|-----3--------3--------3--------3-----|
G|---2---2----2---2--------3--------3---|
D|-0--------0---------3--------3--------|
A|------------------0--------0----------|
E|--------------------------------------|


D               G
I don't care if Monday's blue
D                  A 
Tuesday's grey and Wednesday too
Bm             G
Thursday I don't care about you
     D             A 
It's Friday I'm in love

D              G 
Monday you can fall apart
D                 A
Tuesday Wednesday break my heart
Bm             G
Thursday doesn't even start
     D             A 
It's Friday I'm in love

G        A
Saturday wait
Bm              G 
And Sunday always comes too late
    D            A 
But Friday never hesitate...

D               G
I don't care if Mondays black
D                 A 
Tuesday Wednesday heart attack
Bm           G 
Thursday never looking back
     D             A 
It's Friday I'm in love


D G D A BM G D A (Verse chords)


D              G 
Monday you can hold your head
D                 A
Tuesday Wednesday stay in bed
   Bm                 G 
Or Thursday watch the walls instead
D                  A 
It's Friday I'm in love

G        A
Saturday wait
Bm              G 
And Sunday always comes too late
    D            A 
But Friday never hesitate...

(*PALM MUTE)
Bm                G 
Dressed up to the eyes, it's a wonderful surprise
D           A 
To see your shoes and your spirits rise
Bm                G 
Throwing out your frown and just smiling at the sound
D                 A 
And as sleek as a shriek spinning round and round
Bm                G
Always take a big bite, it's such a gorgeous sight
D          A
To see you eat in the middle of the night
Bm                   G
You can never get enough, enough of this stuff
D           A
It's Friday I'm in love


(STRUM)
D               G
I don't care if Monday's blue
D                  A 
Tuesday's grey and Wednesday too
Bm             G
Thursday I don't care about you
     D             A 
It's Friday I'm in love

D              G 
Monday you can fall apart
D                 A
Tuesday Wednesday break my heart
Bm             G
Thursday doesn't even start
     D             A 
It's Friday I'm in love

D G D A Bm G D A


D            G
It's Friday, I'm in love
D            A
It's Friday, I'm in love
Bm           G
It's Friday, I'm in love
D *          A *
It's Friday, I'm in love

*STRUM LAST 2 CHORDS ONCE AND LET RING OUT
Добавлено: 07.10.2015
Другие материалы по этой песне:
  • Аккорды и текст

Страница создана 07.10.2015
http://primanota.ru/janet-devlin/friday-im-in-love-chords.htm
Привет, Гость.
Предлагаем пройти революционный курс по гитаре.
Подарок от PrimaNota.Ru, забирай!