PrimaNota.ru - самый крупный в мире бесплатный архив песенных текстов, аккордов, табулатур и нот


Janet Basco - You Made Me Live Again - таба, видео

Регистрация Запомнить меня
Войти через:  Facebook Google Twitter Vk Yandex Mail.ru

Janet Basco - You Made Me Live Again - таба, видео

Печатать
Просмотров: 107
You Made Me Live Again by Janet Basco

Tabs written and arranged by Edwin-E (in YouTube)
Blog: http://guitarplucking.blogspot.com
Facebook Page: EGuitar

Video Tutorial:  https://www.youtube.com/watch?v=IQIpKREjxV0

Intro
E|--3--
B|--0--
G|--0--
D|--0--
A|--2--
E|--3--
G

                        I
E|--0-----------0--0-----------------0--------0--|
B|--1-----------------------3--1--3-----1-----1--|
G|--0--0--0--0-----------------2--------------0--|
D|--2--------------------0-----2-----------2-----|
A|--3-----------------2--------0--------3--------|
E|-----------------3-----------------------------|
C               G       Am          C
 I was down and out and feelin' so low


E|-----1--------1--1--0--------------------3--|
B|-----1-----------1-----3--1--------------0--|
G|-----2--2--2-----2-----------0--------0--0--|
D|-----3-----------0-----------------0-----0--|
A|-----3--------------------------2--------2--|
E|--0--1-----------------------3-----------3--|
F            Dm7               G
 You took my hand and eased my mind


E|--0--0--0--1--3----------------0--1--|
B|--1-------------------1--1--3-----1--|
G|--0----------------0--------------0--|
D|--2--------------2----------------3--|
A|--3-----------3-------------------3--|
E|-------------------------1--------1--|
C         C7       F            Fm
 I was astray you showed me the way


E|-------0-----------------------------1-----3-----|
B|----------------3--1--------0--1--3-----3--0-----|
G|----0--------0--------2--2--------2--------0-----|
D|----------2-----------------------0--------0-----|
A|-------3--------------0--------------------2-----|
E|-------------------------------------------3---|
     C              Am               Dm G
 And now I finally found my home in you


                        II

E|--0--------0--0-----------------0--------0--|
B|--1--------------------3--1--3-----1-----1--|
G|--0--0--0-----------------2--------------0--|
D|--2-----------------0-----2-----------2-----|
A|--3--------------2--------0--------3--------|
E|--------------3-----------------------------|
C          G         Am              C
 I still recall the times I've been through


E|-----1--------1--1--0--------------------3--|
B|-----1-----------1-----3--1--3-----------0--|
G|-----2--2--2-----2--------------------0--0--|
D|-----3-----------0-----------------0-----0--|
A|-----3--------------------------2--------2--|
E|--0--1-----------------------3-----------3--|
F               Dm7                 G
 Confused and I didn't know what to do


E|--0--0--0--1--3----------------0--1--|
B|--1-------------------1--1--3-----1--|
G|--0----------------0--------------0--|
D|--2--------------2----------------3--|
A|--3-----------3-------------------3--|
E|-------------------------1--------1--|
C           C7         F           Fm
 I almost gave up but you gave me hope


E|----0-----------------------0-----------3--|
B|-------------3--1-----0--1-----3--3-----0--|
G|----------0--------2-----------------2--0--|
D|-------2-----------2--------0-----------0--|
A|----3--------------0--------------------2--|
E|----------------------------------------3--|
  C               Am           Dm          G
 You've made me strong as the days went on


E|----------------------------|
B|----0--1--3--3--1--1--------|
G|-------------------------0--|
D|----------------------2-----|
A|-------------3--------------|
E|----------------------------|
              C
 You made me live again


CHORUS:

E|--1-----------------------0-----------0--|
B|--1-----1--0--------------------------1--|
G|--2--2--------------2--0-----------0--2--|
D|--3--------------0--------------2-----2--|
A|--3-----------2--------------2--------0--|
E|--1--------3--------------0--------------|
F       G          Em    Am
 I was lost in the dark


E|--1--------------------3-----------|
B|--1-----1--0--0--------------------|
G|--2--2-----------2--0-----------0--|
D|--3--------------------------2-----|
A|--3-----------------------2--------|
E|--1--------3-----------0-----------|
F         G              Em
 With my lonely, broken heart


E|--3--3--1--0--1--0-----------|
B|--------------3-----3--1--3--|
G|--------------2-----------2--|
D|--------------0-----------0--|
A|--0--------------------------|
E|-----------------------------|
Am               Dm                D
 Then you came along, You took me home


E|--------------------------3--|
B|--------0--1--3-----------0--|
G|--2--2-----------------0--0--|
D|--------------------0-----0--|
A|-----------------2--------2--|
E|--------------3-----------3--|
                   G
 And made me your own

                        III
E|--0-----------0--0--------------------0--------0--|
B|--1-----------------------3--1--1--3-----1-----1--|
G|--0--0--0--0-----------------2-----------------0--|
D|--2--------------------0-----2--------------2-----|
A|--3-----------------2--------0-----------3--------|
E|-----------------3--------------------------------|
C                 G       Am              C
 You were always there to lend a helping hand


E|-----1-----1--1--0--------------------3--|
B|-----1--------1-----3--1--------------0--|
G|-----2--2-----2-----------0--------0--0--|
D|-----3--------0-----------------0-----0--|
A|-----3-----------------------2--------2--|
E|--0--1--------------------3-----------3--|
F            Dm7                 G
 When good friends were hard to find


E|--0--0--0--1--3----------------0--1--|
B|--1-------------------1--1--3-----1--|
G|--0----------------0--------------0--|
D|--2--------------2----------------3--|
A|--3-----------3-------------------3--|
E|-------------------------1--------1--|
C                   C7   F             Fm
 When things went wrong you made them right


E|----0-----------------------0-----3--|
B|-------------3--1-----0--3-----3--0--|
G|----------0--------2-----2--------0--|
D|-------2-----------2-----0--------0--|
A|----3--------------0--------------2--|
E|----------------------------------3--|
  C              Am      Dm   G
 You've made my days so bright


E|----------------------------|
B|----0--1--3--3--1--1--------|
G|-------------------------0--|
D|----------------------2-----|
A|-------------3--------------|
E|----------------------------|
              C
 You made me live again


   (Repeat Chorus)

                         IV
E|--0--------0--0--------------------0--------0--|
B|--1--------------------3--1--1--3-----1-----1--|
G|--0--0--0-----------------2-----------------0--|
D|--2-----------------0-----2--------------2-----|
A|--3--------------2--------0-----------3--------|
E|--------------3--------------------------------|
C            G    Am              C
 Now look at me, yes, a different me


E|-----1-----1--1--0--------------------3--|
B|-----1--------1-----3--1--------------0--|
G|-----2--2-----2-----------0--------0--0--|
D|-----3--------0-----------------0-----0--|
A|-----3-----------------------2--------2--|
E|--0--1--------------------3-----------3--|
F            Dm7   G
 Back on my feet again


E|-------0--0--3--3--------3--3--1--0--1--0-----1--|
B|-------------------------------------------3--1--|
G|----0-----------------0-----------------------1--|
D|----2--------------2--------------------------3--|
A|----3-----------3-----------------------------3--|
E|----------------------------1-----------------1--|
C           C7      F               Fm
 I'm not afraid to face the world again


E|-----0--------------------0-----1-----------------3--|
B|--------------3--1-----1-----3-----3--------------0--|
G|--0--------0--------2--------2-----------------0--0--|
D|--------2-----------2--------0--------------0-----0--|
A|-----3--------------0--------------------2--------2--|
E|--------------------------------------3-----------3--|
         C            Am          Dm   G
 'Cause you taught me how to be strong


E|----------------------3--0--|
B|----0--1--3--3--1--1--0--1--|
G|----------------------0--0--|
D|----------------------0--2--|
A|-------------3--------2--3--|
E|----------------------3-----|
              C         G C
 You made me live again
Добавлено: 07.12.2015
Другие материалы по этой песне:
  • Аккорды и текст

Страница создана 07.12.2015
http://primanota.ru/janet-basco/you-made-me-live-again-chords.htm
Привет, Гость.
Предлагаем пройти революционный курс по гитаре.
Подарок от PrimaNota.Ru, забирай!