PrimaNota.ru - самый крупный в мире бесплатный архив песенных текстов, аккордов, табулатур и нот


Janes Addiction - Up The Beach - аккорды и текст, таба, бас-таба, видео

Регистрация Запомнить меня
Войти через:  Facebook Google Twitter Vk Yandex Mail.ru

Janes Addiction - Up The Beach - аккорды и текст, таба, бас-таба, видео

Печатать
Просмотров: 168
Авторы музыки: Perry Farrell, Stephen Perkins, Dave Navarro, Eric Avery
Авторы текста: Perry Farrell
Up The Beach
Janes Addiction
Intro/main lick
[G-----7-----7-----7----7----7h9p7--
D--0-----0-----0-----0---0---------
A----------------------------------
D----------------------------------]

"here we go..."
[G----------------7----
D------------------0--
A---------------------
D---00-00--00-0-------]

"home..." fills
[G------------------------7--
D--5-4--------7/9------7----
A------5-4--------5---------
D-------------------0-------]
i know it's incomplete, but i didn't have the patience to keep on
rewinding the tattered old tape i have :}
Добавлено: 14.04.2014
Другие материалы по этой песне:

Страница создана 23.03.2012
http://primanota.ru/janes-addiction/up-the-beach-chords.htm
Привет, Гость.
Предлагаем пройти революционный курс по гитаре.
Подарок от PrimaNota.Ru, забирай!