PrimaNota.ru - самый крупный в мире бесплатный архив песенных текстов, аккордов, табулатур и нот


Janes Addiction - Slow Divers - аккорды и текст, видео

Регистрация Запомнить меня
Войти через:  Facebook Google Twitter Vk Yandex Mail.ru

Janes Addiction - Slow Divers - аккорды и текст, видео

Печатать
Просмотров: 122
Slow Divers
Janes Addiction
Artist: Jane's Addiction
Title: Slow Divers
Album: Kettle Whistle, 1997
Transcribed by: Dan Bauer (djdan3@mac.com)

If you listen to the song, you can hear the strumming
pattern and appropriate chord changes.
Enjoy.

INTRO
e|-----0----0----3----|
b|-----0----1----3----|
g|-----2----2----0----|
d|-----2----2----2----|
a|-----0----0----2----|
E|-----0----0----0----|

VERSE A
"She said do you could......"
e|-----0------3----|
b|-----1------3----|
g|-----2------0----|
d|-----2------2----|
a|-----0------2----|
E|-----0------0----|

(Occasionally VERSE A alternates with VERSE B)

VERSE B
e|-----0-0-0-0-0------3---|
b|-----0-0-1-1-1------3---|
g|-----2-2-2-2-2------0---|
d|-----2-2-2-2-2------2---|
a|-----0-0-0-0-0------2---|
E|-----0-0-0-0-0------0---|

"...water polished walls"
END VERSE


CHORUS
"......Just don't ever want to move..."
e|-----0---0------0----|
b|-----0---0------1----|
g|-----2---2------2----|
d|-----2---2------2----|
a|-----0---0------0----|
E|-----X---X------X----|

Repeat all for remainder of song.




     
Добавлено: 17.07.2013
Другие материалы по этой песне:
  • Аккорды и текст

Страница создана 11.03.2012
http://primanota.ru/janes-addiction/slow-divers-chords.htm
Привет, Гость.
Предлагаем пройти революционный курс по гитаре.
Подарок от PrimaNota.Ru, забирай!