PrimaNota.ru - самый крупный в мире бесплатный архив песенных текстов, аккордов, табулатур и нот


Janes Addiction - Jane Says Live - аккорды и текст, видео

Регистрация Запомнить меня
Войти через:  Facebook Google Twitter Vk Yandex Mail.ru

Janes Addiction - Jane Says Live - аккорды и текст, видео

Печатать
Просмотров: 93
Jane Says Live
Janes Addiction
Jane Says - Jane's Addiction
____________________________

tabbed by Marek Orszulka
marek@blenders.inet.pl


I was listening live version "Jane Says" from Kettle Whistle 
& watching "Jane Says '97" video with Flea.

intro (only in live version):

E--0--0--0--0--0--0------0-|
B--3--3--3--3--3--3------3-|
G--2--2--0--2--2--2------0-|
D--0--0--0--0--0--0------0-|
A--------------------------|
E--------------------------|


main riff (I saw on video that Dave is playing barre chords):

E--3----3-3--3-5--5--7-5-5-5---|
B--3----3-3--3-5--5--5-5-7-5---|
G--4----4-4--4-6--6--6-6-6-6---|
D--5----5-5--5-7--7--7-7-7-7---|
A--5----5-5--5-7--7------------|
E--3----3-3--3-5--5------------|



riff 2:

E--3---3-3---0---0--0-0--------|
B--3---3-3---3---3--3-3--------|
G--0---0-0---0---2--2-2--------|
D--0---0-0---0---0--0-0--------|
A--2---2-2---2-----------------|
E--3---3-3---3-----------------|

any corrections or comments?
please e-mail me  -  marek@blenders.inet.pl


     
Добавлено: 14.09.2013
Другие материалы по этой песне:
  • Аккорды и текст

Страница создана 14.09.2013
http://primanota.ru/janes-addiction/jane-says-live-chords.htm
Привет, Гость.
Предлагаем пройти революционный курс по гитаре.
Подарок от PrimaNota.Ru, забирай!