PrimaNota.ru - самый крупный в мире бесплатный архив песенных текстов, аккордов, табулатур и нот


Janelle Monae - Sincerely Jane - текст песни, таба, видео

Регистрация Запомнить меня
Войти через:  Facebook Google Twitter Vk Yandex Mail.ru

Janelle Monae - Sincerely Jane - текст песни, таба, видео

Печатать
Просмотров: 202
Song: Sincerely Jane (Acoustic)

Artist: Janelle Monae

L. A. RAI.

(Intro/Verse 1)

E-------------------------------|
B-------------------------------|
G-------------------------------|
D-------------------------------|
A---4-----4---4-2-5-4-0---------|
E-2---2-5-----------------------|

(Intro/Verse 2)

E-------------------------------|
B-------------------------------|
G---2-----2----2----------------|
D---2-----2----2----------------|
A-----------------4-2-5-4-------|
E-2---2-2---0-2-----------5-----|

"1,2,3,4 your cousin's round here sellin' dope..."

(Chorus)

Riff A:

E-4-4-4-4-4-2----7-7-7-7-7-5--4-2-------------|
B-2-2-2-2-2-2----5-5-5-5-5-5--2-2-------------|
G-3-3-3-3-3-3----6-6-6-6-6-6--2-2-------------|
D-----------------------------2-2-------------|
A---------------------------------------------|
E---------------------------------------------|

Repeat Intro/Verse x1

Riff B:

e-------------------------------|
B-------------------------------|
G-------------------------------|
D----------4---6---7---11-------|
A---4--4------------------------|
E-2--2---2---4---5---9----------|

Riff C:

e-----------------------------------------------------|
B-----------------------------------------------------|
G---7-----7-------6-----6-------7-----6---------------|
D---7-----7-------6-----6-------7-----6---------------|
A-------------------------7-6-5---5-4---4-------------|
E-7---7-7---7-6-5---5-5-------------------2-----------|

(C.1)

e-----2------3------5-------|
B---------------------------|
G-2/3----3/4----4/6---------|
D---------------------------|
A---------------------------|
E---------------------------|


(C.2)
(Strum F#)


e--------------------------|
B-----2--------------------|
G------3-------------------|
D---4---4------------------|
A--4-----------------------|
E-2------------------------|


Verse 2:

e--------------4-2------|
B----2---2---2----2-----|
G---2---2---2-----------|
D-4----3---2------------|
A-----------------------|
E-----------------------|

"Love don't make sense.."


Breakdown/Outro:

e-2--0--2--2-0--2-0--2--0-0-----|
B-2--0--2--3-0--2-0--2--2-0-----|
G-3--1--3--2-1--3-1--3--2-1-----|
D-4--2--4--0-2--4-2--4--2-2-----|
A-4--2--4----2--4-2--4--0-2-----|
E-2--0--2----0--2-0--2--0-0-----|

End on F#.

Order of parts in song:

Intro/Verse1 x 4
Intro/Verse2 x 6
Riff A x 1
Intro/Verse1 x 1
Riff A x 1
Riff B x 1
Riff C x 1
C.1 x 1
Riff C x 1
C.2 x 1
Verse 2 x 4
Riff A X 1
Intro/Verse 1 x 1
Riff A x 1
Riff B x 1
Riff C x 1
C.2 x 1
Riff C x 1
C.2 x 1
Intro/verse x 4
Intro/verse x 6
Riff A x 1
Verse/Intro x 1
Riff A x 1
Riff B x 1
Riff C x 1
C.1 x 1
Riff C x 1
C.2 x 1
Breakdown/Outro till end

I may put up a video of this version on Youtube, so keep an eye out for that :)
Добавлено: 20.05.2012
Другие материалы по этой песне:
  • Аккорды и текст

Страница создана 20.05.2012
http://primanota.ru/janelle-monae/sincerely-jane-chords.htm
Привет, Гость.
Предлагаем пройти революционный курс по гитаре.
Подарок от PrimaNota.Ru, забирай!