PrimaNota.ru - самый крупный в мире бесплатный архив песенных текстов, аккордов, табулатур и нот


Jane Air - Wish You Were Here (Mama) - аккорды и текст, видео

Регистрация Запомнить меня
Войти через:  Facebook Google Twitter Vk Yandex Mail.ru

Jane Air - Wish You Were Here (Mama) - аккорды и текст, видео

Печатать
Просмотров: 174
Wish You Were Here (Mama)
Jane Air
E||-----------------1----|-------|-----------------0----|-------|
B||----------------------|-------|----------------------|-------|
G||-------2--------------|-------|-------0--------------|-------|
D||--0---------0---------|-------|----------------------|-------|
A||----------------------|-------|--3---------3---------|-------|
E||----------------------|-------|----------------------|-------|
    
----------------------|-------|----------------------|------------------------|
-----------------3----|-------|-------5----5----5----|--10---------5h----6----|
----------------------|-------|-------5----5----5----|---9---------5-----5----|
----------------------|-------|-------5----5----5----|---x---------5-----5----|
-------5--------------|-------|----------------------|------------------------|
--3---------3---------|-------|----------------------|------------------------|

Dm C G C
Под звуки старой затертой пластинки
Она тихо поёт Wish you were here
За окном шторм бьются волны разбиваясь о
стены
Но в маяке тихо и очень светло

И потерявшись во тьме через тысячу лет
Порвав паруса и оставив друзей на дне океана
Я держу свой курс ровно на свет
Я конечно вернусь ведь этот маяк моя мама

Пластинка кончилась, игла гоняет по кругу пыль
Свет всё горит я вижу его сквозь туман и дожди
И птица хлопает крыльями где-то в груди
Где ты всегда поешь Wish you were here

Wish you were here
Добавлено: 30.10.2015
Другие материалы по этой песне:
  • Аккорды и текст

Страница создана 30.10.2015
http://primanota.ru/jane-air/wish-you-were-here-mama-chords.htm
Привет, Гость.
Предлагаем пройти революционный курс по гитаре.
Подарок от PrimaNota.Ru, забирай!