PrimaNota.ru - самый крупный в мире бесплатный архив песенных текстов, аккордов, табулатур и нот


Jane Air - 08:00 утра - аккорды и текст, видео

Регистрация Запомнить меня
Войти через:  Facebook Google Twitter Vk Yandex Mail.ru

Jane Air - 08:00 утра - аккорды и текст, видео

Печатать
Просмотров: 397
08:00 утра
Jane Air
Вступление (2 раза):

D|--7---------------7--------7^-----7-----------------11--------------|
A|----7-----------6---5------5^-------7-------------------10----------|
F|5--------------------------5^---5---------------9-------------------|
C|--------------------------------------------------------------------|
G|--------------------------------------------------------------------|
D|--------------------------------------------------------------------|

Рифф:

D|----------------|\
A|----------------| \
F|3--x44-x3-xx4---|  \
C|3--x44-x3-xx4---|   > 4 раза
G|1--x22-x1-xx2---|  /
D|1--x22-x1-xx2---| /

D|5-------5-------|\
A|4-------4-------| \
F|3--x44-x3-xx4---|  \
C|3--x44-x3-xx4---|   > 4 раза
G|---x22-x--xx2---|  /
D|---x22-x--xx2---| /

Куплет=вступление

8 утра
Холодный завтрак 
Постель пуста 
Плохой знак 
Скверные мысли 
В душной маршрутке 
Ты не в порядке? 
Да еще как!!! 

	Знаешь сколько 
	Таких как я 
	В этот день 
	Выпадает из окна 
	В этот день...

Проигрыш: первая часть риффа

Звонки подругам 
Что может быть хуже 
Она у тебя, нет? 
Голос простужен 
Улыбаются фотки 
С*ки на стенах 
Пойми наконец 
Что ты ей не нужен 

	Припев

Припев играется так:

D|--------------------------------------------------|
A|--------------------------------------------------|
F|--6---------------4---------------7---------------|
C|--6---------------4---------------7---------------|
G|--4---------------2---------------5---------------|
D|--4---------------2---------------5---------------|
В этот день Я узнаю шаткий      карниз ногами 

В этот день Я узнаю мокрый асфальт мозгами 
В этот день Я полечу, раскинув крылья 
В этот день Не провожай, уйду один 

Тихий корридор 
Холодные палаты 
Крашеные стены 
Кафельный пол 
Заляпанный чем-то 
Чем лучше не думать 
Тем что когда-то 
Было тобой 
Тем что когда-то 
Ходило смотрело 
Искало любило кого-то имело 
Ходило в окно 
Чего ты достигло 
Лежишь на полу 
С*ка 

	Припев

	Припев под музыку из вступления

Рифф

После этого:
D|--------------------------------|\
A|-2-2---x-4-----x-2-----x-4------| \
F|-4-4---x-6-----x-4-----x-6------|  \
C|-4-4---x-6-----x-4-----x-6------|   > 8 раз
G|-2-2---x-4-----x-2-----x-4------|  /
D|--------------------------------| /
        В этот день, В этот день.../

А это играется сначала 4 раза рзко и отрывисто, потом 4 раза непрерывно:

D|--------------------------------|
A|-2-2---2-4-----2-2-----2-4------|
F|-4-4---4-6-----4-4-----4-6------|
C|-4-4---4-6-----4-4-----4-6------|
G|-2-2---2-4-----2-2-----2-4------|
D|--------------------------------|

Кода:
D|7---7-------7---7-----------7---|\
A|--------------------------------| \
F|--8---8-------8---8-------8/----|  \
C|--------------------------------|   > 4 раза
G|--------------------------------|  /
D|--------------------------------| /

Песню завершает довольно быстрое тремоло на 1-й струне.
К середине слабее, а к концу чуть громче:
D|12--12--12--12--12--12--12--12--12--12--12--12--12--12--12--12--|
Добавлено: 09.06.2012
Другие материалы по этой песне:
  • Аккорды и текст

Страница создана 09.06.2012
http://primanota.ru/jane-air/0800-utra-chords.htm
Привет, Гость.
Предлагаем пройти революционный курс по гитаре.
Подарок от PrimaNota.Ru, забирай!