PrimaNota.ru - самый крупный в мире бесплатный архив песенных текстов, аккордов, табулатур и нот


Jan Krist - Shine - таба, видео

Регистрация Запомнить меня
Войти через:  Facebook Google Twitter Vk Yandex Mail.ru

Jan Krist - Shine - таба, видео

Печатать
Просмотров: 71
		   SHINE
by: Jan Krist (off a storyville sampler)
xcribed: d. baderman
Drop D tuning.

INTRO:

   D              E                  F#m                 E D 
1. She buries the problems, But they grow and bloom again
       E                       F#m           E D
No one need see them, She will deftly pretend
           E                     F#m     E     D
Hiding her high cards, Best foot forward every time
F#m               E               F#m  E  D
Who will love her if she does not shine

                 E                        F#m         E D
2.  Hopelessness stalks her, But she will not give in
         E             F#m      E D
She will reason fear away again
               E           F#m       E        D
Full and leaky vessel, She hides the cracks behind
    F#m               E               F#m
And who will love her if she does not shine?

     D             E
Ch:  Who will love her (shining)
     D             E
     Who will love her (shining)
     D                 E               F#m
     Who will love her if she does not shine

E D E F#m E D
                 E                 F#m               E D
3.  She tries to pull herself from difficult requests
            E                   F#m           E D
Works to be satisfied with just doing her best
                       E               F#m       E      D
Til someone doubts her courage and she struggles with resign
F#m               E                 F#m
Who will love her if she does not shine

Ch:

E D E F#m D E F#m  (note 2) D
                 E                 F#m                E D
4.  She tries to pull herself from rejection's debris
                 E                  F#m
And the more she pulls the less she seems to be free
D             E              F#m       E        D
When did this all begin, Was there one point in time
    F#m               E                 F#m
And Who will love her if she does not shine
 

Ch: X2

FIN

\---------------------------------------------------------\
INTRO:


E-|-----9---9----9---9-----10----10----10--------| X 2 then:
B-|---10---9---10---9-9--10----10----10----------|
G-|-11---11--11---11---11----11----11------------|
D-|----------------------------------------------|
A-|----------------------------------------------|
D-|----------------------------------------------|


                               F#m   E D
E-|-------------2-2-|----------2--|
B-|---3---------2-2-|----------2--|
G-|---2---------4-2-|----------2--|
D-|-0----2---4--4-4-|-2--0--2--4--|
A-|---------------4-|-2--0--2--4--|
D-|-0----2---4----4-|-2--0--2--4--|
                               ^start strumming

NOTE 2:

E-|---9--9---9----9-9--9--|---9--9---9----9-9--9--|
B-|----10--10-10---9--9-9-|----10--10-10---9--9-9-|
G-|-11----------11--------|-11----------11--------|
D-|-----------------------|-----------------------|
A-|-----------------------|-----------------------|
D-|-----------------------|-----------------------|



E-|--9-----------9--------|--9-----------9--------|
B-|-10-----------9--------|-10-----------9--------|
G-|-11----------11--------|-11----------11--------|
D-|-----------------------|-------------------2-0-|
A-|-----------------------|-------------------2-0-|
D-|-----------------------|-------------------2-0-|
    ^strumming the timing pattern above

FIN:

D E F#m D E F#m  |--9--12----9--12-9-| X3 then F#m
                 |--9--12----9--12-9-|
                 |--9---9----9---9-9-|
                 |--9---9----9---9---|
                 |-------------------|
                 |-------------------|
                     ^v^ v v^v^v^ v ^

Use full chords - let all strings ring throughout..

E-|--2---0---2--|
B-|--3---0---2--|
G-|--2---1---2--|
D-|--0---2---4--|
A-|--0---2---4--|
D-|--0---2---4--|
     D   E   F#m


--

d.baderman [dan@hwcae.az.honeywell.com]
---------------------------------------------------
..all our superstars are suicidal casualties
and our heros die in motel rooms and motorcades..
	R. Stonehill "Through the Glass Darkly"
---------------------------------------------------

     
Добавлено: 28.08.2013
Другие материалы по этой песне:
  • Аккорды и текст

Страница создана 28.08.2013
http://primanota.ru/jan-krist/shine-chords.htm
Привет, Гость.
Предлагаем пройти революционный курс по гитаре.
Подарок от PrimaNota.Ru, забирай!