PrimaNota.ru - самый крупный в мире бесплатный архив песенных текстов, аккордов, табулатур и нот


Jan Hegenberg - In Den Nebeln Von Pandaria - аккорды и текст, видео

Регистрация Запомнить меня
Войти через:  Facebook Google Twitter Vk Yandex Mail.ru

Jan Hegenberg - In Den Nebeln Von Pandaria - аккорды и текст, видео

Печатать
Просмотров: 127
In Den Nebeln Von Pandaria
Jan Hegenberg
-------------------------------------------------------------------------------
                             In den Nebeln von Pandaria - Jan Hegenberg
-------------------------------------------------------------------------------
Tabbed by: Downloader99
E-mail: gamer006@freenet.de


My first tab, hope you like it :)

Tuning: Standard

e|--0h2-3---3p2p0-----------------------------------------------------0-2--------|
B|----------------3------0-----0-3-------------5---5p3----------7----------------|
G|-------------------------------------------------------4-----------------------|
D|-------------------------------------------------------------------------------|
A|---------------------------------------------3----------------5----------------|
E|------0----------------3-------------------------------------------------------|

e|--3----10---------------3p0---------0------------------------------------------|
B|-----------------3-------------3--------3--------------3-----------------------|
G|----------------------------------------------2--------------------------------|
D|-------------------------------------------------------0-----------------------|
A|-------------------------------3-----------------------------------------------|
E|--0--------------3-------------------------------------------------------------|

e|--0-2--3---3p2p0---------------------------------------------------------------|
B|-----------------3----0-------0--3-------5------5p3----------7-----------------|
G|------------------------------------------------------4------------------------|
D|-------------------------------------------------------------------------------|
A|-----------------------------------------3-------------------5-----------------|
E|-------0--------------3--------------------------------------------------------|

e|-0-2--3---10---------------------3------2------3p2--0----------0---------------|
B|------------------5---------3---------------------------3------0---------------|
G|---------------------------------------------------------------0---------------|
D|----------------------------------------0----------------------2---------------|
A|------------------3--------------------------------------------2---------------|
E|------0--------------------------------------------------------0---------------|



          Em               D/F#
Zieht die Schwerter, Äxte, Hämmer

       G                 Csus2 
Ölt Musketen, spannt die Bögen

D             Bm                Em
Männer, heut' zieh'n wir in den Krieg


     Em             D/F#
Legt an die Rüstung und den Helm

       G               Csus2 
blickt grimmig durch's Visier

         D          Bm           Em 
denn was heute zählt ist nur der Sieg



         Csus2               D
Die alte Welt ist längst verloren

       Bm                 Csus2
in die neue trägt uns der Wind

                          D
unser Feind ist längst erkoren

           Bm
macht euch bereit bevor die Zeit verrinnt


       Em             D Em
In den Nebeln von Pandaria




************************************

| /   slide up
| \   slide down
| h   hammer-on
| p   pull-off
| ~   vibrato
| +   harmonic
| x   Mute note
| b   Bend
| pb  Pre-bend
| br  Bend release
| pbr Pre-bend release
| brb Bend release bend

************************************
Добавлено: 30.07.2015
Другие материалы по этой песне:
  • Аккорды и текст

Страница создана 30.07.2015
http://primanota.ru/jan-hegenberg/in-den-nebeln-von-pandaria-chords.htm
Привет, Гость.
Предлагаем пройти революционный курс по гитаре.
Подарок от PrimaNota.Ru, забирай!