PrimaNota.ru - самый крупный в мире бесплатный архив песенных текстов, аккордов, табулатур и нот


Jan Delay - Berdosis Fremdscham - бас-таба, видео

Регистрация Запомнить меня
Войти через:  Facebook Google Twitter Vk Yandex Mail.ru

Jan Delay - Berdosis Fremdscham - бас-таба, видео

Печатать
Просмотров: 107
Jan Delay - Überdosis Fremdscham Bass Tab by Ma!kel

Standard Tuning

Bridge and Outro aren't quiet complete, the rest should be right

Intro + Verse + Chorus

G ----------------------------------|
D ----5-5---------------------------|
A ---------3-----6-6----------------|
E ----------------------------------|

G ----------------------------------|
D ----3-3---5-----------------------|
A ----------------------------------|
E ---------------3-3----------------|

Interlude (0:30) & (2:56)

G ----------------------------------|
D -----5-----5-----5-----5----------|
A ----------------------------------|
E ----------------------------------|


Interlude #2 (1:39)       2x

G ----------------------------------|
D ----5---3--5-5--------------------|
A ------5--------------1-1---3------|
E ------------------------------3---|

G ----------------------------------|
D ---5-----5-5----------------------|
A ------5--------------1-1---3------|
E ------------------------------3---|

Bridge  & Outro (not sure about this, little rough)

G ----------------------------------|
D ----------------------------------|
A --6---6-5--3-----6--3-------------|
E ----------------------------------|

G ----------------------------------|
D -----------------3--5-------------|
A --6---6-5--3----------------------|
E ----------------------------------|
Добавлено: 17.03.2012
Другие материалы по этой песне:
  • Аккорды и текст

Страница создана 17.03.2012
http://primanota.ru/jan-delay/berdosis-fremdscham-chords.htm
Привет, Гость.
Предлагаем пройти революционный курс по гитаре.
Подарок от PrimaNota.Ru, забирай!