PrimaNota.ru - самый крупный в мире бесплатный архив песенных текстов, аккордов, табулатур и нот


Jan Cyrka - Home Improvement - таба, видео

Регистрация Запомнить меня
Войти через:  Facebook Google Twitter Vk Yandex Mail.ru

Jan Cyrka - Home Improvement - таба, видео

Печатать
Просмотров: 182
-------------------------------------------------------------------------------
			     SONG NAME - Band Name
-------------------------------------------------------------------------------
Tabbed by:
Email:

Tuning:

e|---------------------------------------------------------------------------|
B|----------------------------------------------------------10b12rb10-8-10---|
G|-------~9--9-9--~~12--------9--9-9------------9--9-9--~12------------------|
D|-9-h12----------------9-h12--------12---9-h12------------------------------|
A|---------------------------------------------------------------------------|
E|---------------------------------------------------------------------------|


e|---------------------------------------------------------------------------|
B|----------------8--~~10--8-----8--------------8---8/10---------------------|
G|--9-----9p7--9--------------9----9----9-9-7-9---9--------------------------|
D|---------------------------------------------------------------------------|
A|---------------------------------------------------------------------------|
E|---------------------------------------------------------------------------|

e|------------------------------------------------------------------------------|
B|------------------------------------------------------------------------------|
G|--10-----10--10/--13------------10----10--10\--8-----------10----10--10/------|
D|--10-----10--10/--13---10/--13--10----10--10\--8--10/--13--10----10--10/------|
A|--8------8---8/---11---10/--13--8-----8---8\---6--10/--13--8-----8---8/-------|
E|-----------------------8/---11--------------------8/---11---------------------|

e|-----------------------------------------------------------------------------|
B|-----------------------------------------------------------------------------|
G|--13-------------------------------------------------------------------------|
D|--13-------------------------------------------------------------------------|
A|--11-------------------------------------------------------------------------|
E|-----------------------------------------------------------------------------|

e|-----------------------------------------------------------------------|
B|-----------------------------------------------------------------------|
G|---17--15--13--15--13--10----------------------------------------------|
D|---17--15--13--15--13--10----------------------------------------------|
A|---15--13--11--13--11--8-----------------------------------------------|
E|-----------------------------------------------------------------------|




| /  slide up
| \  slide down
| h  hammer-on
| p  pull-off
| ~  vibrato
| +  harmonic
| x  Mute note
==================================================
Добавлено: 17.09.2013
Вам также может быть интересно:
Другие материалы по этой песне:
  • Аккорды и текст

Страница создана 17.09.2013
http://primanota.ru/jan-cyrka/home-improvement-chords.htm
Привет, Гость.
Предлагаем пройти революционный курс по гитаре.
Подарок от PrimaNota.Ru, забирай!