PrimaNota.ru - самый крупный в мире бесплатный архив песенных текстов, аккордов, табулатур и нот


Jan Cyrka - Brief Encounter - таба, видео

Регистрация Запомнить меня
Войти через:  Facebook Google Twitter Vk Yandex Mail.ru

Jan Cyrka - Brief Encounter - таба, видео

Печатать
Просмотров: 408
I recommend you know the song before looking at the tab to familarise yourself with the 
of the song.

H- Hammer on  / \-slide  x- palm mute  LD- let down
b- bend  ( )- sustain the notes po- pull off

E|-----------------------------|----------------------|-------------|
B|-7H9--9/10--------------/10-|-9--9-10-9-7-----------|-------------|
G|-------------6--6/7-(7)------|------------9-(9)--7H9|-9/11--------|
D|-----------------------------|----------------------|------9/11\9-|
A|-----------------------------|----------------------|-------------|
E|-----------------------------|----------------------|-------------|


E|----------------------------|----------------------|--------------|
B|------------------------7H9-|-9/10---12b14LD12po10-|-14-10-12b14--|
G|----------------------------|------6---------------|--------------|
D|-6/7\6h7--9--9/11-(11)------|----------------------|--------------|
A|----------------------------|----------------------|--------------|
E|----------------------------|----------------------|--------------|


E|-9-10--10/12--10--9-------------|-----------|---------------------|
B|---------------------10--10--12-|--12b14----|-(14)--(14)-x--7b9LD7|
G|--------------------------------|-----------|------------x--------|
D|--------------------------------|-----------|------------x--------|
A|--------------------------------|-----------|---------------------|
E|--------------------------------|-----------|---------------------|


E|-|----------------------------------------------|---------------|-|
B|-|---------------------------------------5b7-(7)|-5-(5)--9-9-10-|-|
G|-|6---------------------------------------------|---------------|-|
D|-|--7--4-(4)------------------------------------|---------------|-|
A|-|-----------4--0--2H4--------------------------|---------------|-|
E|-|----------------------2(dipwhammybar)---------|---------------|-|

  partial LD from 14 to 13, then gradual bend up again to 14

E|--------------------------------------14--16--16b17--16b17-(16)---|
B|-12b(14)-(13)---(13)----(14)---x--14------------------------------|
G|------------------------------------------------------------------|
D|------------------------------------------------------------------|
A|------------------------------------------------------------------|
E|------------------------------------------------------------------|

                                     Bend further to 21 then LD 17

E|----------------|------------------17b19--(19)-(21)--17--14\9-----|
B|-14-(14)--17b19-|--17b19-(17)po14------------------------------10-|
G|----------------|-------------------------------------------------|
D|----------------|-------------------------------------------------|
A|----------------|-------------------------------------------------|
E|----------------|-------------------------------------------------|

                       dip the whammy bar right down to finish

E|-------------|------------|----------------------------------------|
B|-------------|------------|----------------------------------------|
G|--9\2--4-4/6-|------------|----------------------------------------|
D|-------------|---3h4--4/6\|4---------------------------------------|
A|-------------|------------|----------------------------------------|
E|-------------|------------|----------------------------------------|
Добавлено: 11.03.2012
Вам также может быть интересно:
Другие материалы по этой песне:

Страница создана 11.03.2012
http://primanota.ru/jan-cyrka/brief-encounter-chords.htm
Привет, Гость.
Предлагаем пройти революционный курс по гитаре.
Подарок от PrimaNota.Ru, забирай!