PrimaNota.ru - самый крупный в мире бесплатный архив песенных текстов, аккордов, табулатур и нот


Jamiroquai - Time Wont Wait - текст песни, бас-таба, видео

Регистрация Запомнить меня
Войти через:  Facebook Google Twitter Vk Yandex Mail.ru

Jamiroquai - Time Wont Wait - текст песни, бас-таба, видео

Печатать
Просмотров: 763
Intro
G|----------------------------------------------|
D|----------------------------------------------|
A|------3h5-5-3h5\1-------3h5--5h7p5--5h7p5-----|
E|--3h5----------------3h5----------------------|
                                                  x4
G|---------------------------------------------|
D|---------------------------------3h5p3-------|
A|------3h5-5-3h5\1-------3h5-5-3--------5h7p5-|
E|--3h5---------------3h5----------------------|

alternative ending at the fourth repetition
G|----------------------------------------------|
D|----------------------------------------------|
A|------3h5-5-3h5\1-------3h5-5-3---------------|
E|--3h5---------------3h5-----------1/9----12\1-|

Chorus

G|--------------5-5-3-5------3-3-1-3------------------|
D|--3-3-1-3---------------------------------4--4h6-4--|
A|------------3---------3--1---------1----4--4--------| x2
E|1---------1--------------------------1--------------|

Verse__________

G|-----------------------------|
D|----6-8--------------------3-|
A|------------3h5-3------3h5---|    x3
E|-x------4-6---------3h5------|

Bridge

G|----------------------------5---7-----|
D|-------------------5-5--5h7-----------|
A|---------4-4--4h6---------------------|    x1
E|-3-3--3h5-----------------------------|

Verse         x3

Chorus         x1

Chorus 2
G|----------------7--5--------5--3-------------------------|
D|----------------------7--5---------5-3h5--3h5--3h5--3h5--|
A|-------5-7-----------------------------------------------| x1
E|1-1---------3-5------------------------------------------|

Chorus         x1

Chorus 2       x1

Verse          x3

Bridge

Verse          x3

Bridge

Chorus         x1

Chorus 2       x1

Chorus         x1

Chorus 2       x1

Interlude (same as intro)

Chorus         x1

Chorus 2       x1

Chorus         x1

Chorus 2       x1

Break

Chorus 1 and 2 cycle until the end.
Добавлено: 29.04.2012
Другие материалы по этой песне:

Страница создана 29.04.2012
http://primanota.ru/jamiroquai/time-wont-wait-chords.htm
Привет, Гость.
Предлагаем пройти революционный курс по гитаре.
Подарок от PrimaNota.Ru, забирай!