PrimaNota.ru - самый крупный в мире бесплатный архив песенных текстов, аккордов, табулатур и нот


Jamiroquai - Space Clav - бас-таба, видео

Регистрация Запомнить меня
Войти через:  Facebook Google Twitter Vk Yandex Mail.ru

Jamiroquai - Space Clav - бас-таба, видео

Печатать
Просмотров: 163
Авторы музыки: Stuart Zender, Toby Smith

Hello folks ! heres a nice funkyass song by iroquai! i think this song 
was recorded by stuart zender during the start of when you gunna learn. 
but it never reached the album :( its pritty easy and i think its played in
5 strings :\ but heres my go at it :D please comment and rate :D A.J

Main Riff
|-------------------------|
|--------5-5-x--7---------|
|-7-7-8------------5--5-6-| repeat till end
|-------------------------|

Bass Riff
|--9-9-10--10--6-6-6-7--5-8--|
|----------------------------|
|--7-7-8-------4-4-4-5--5-6--| repeat till end
|----------------------------|

Fill 1
|---------------------------------|
|-12--14-15-14-12--11----11----12-|
|---------------------12----12----|
|---------------------------------|

Fill 2
|-----------------------------|
|-----------------------------|
|-----------------------------|
|-10--12-13-12-10--9-x-9-x-10-|

And thats it. repeat it over and over again. i like to add some funky fills
in between the riffs :D peace !

Stuart Zender rules
Добавлено: 21.06.2012
Другие материалы по этой песне:
  • Аккорды и текст

Страница создана 21.06.2012
http://primanota.ru/jamiroquai/space-clav-chords.htm
Привет, Гость.
Предлагаем пройти революционный курс по гитаре.
Подарок от PrimaNota.Ru, забирай!